Klamydia Tabs

Ei Sen Kummempaa

1 versions

TAB

            Ei sen kummempaa - Klamydia
-------------------------------------------------------------------------------
Tabbed by: Nerdpunx
Email:henri.nieminen@luukku.com

Tuning:Standard

Korvalta opeteltu joten vikoja saattaa olla, mutta päällisin puolin soundaa oikealta.

Intro:

e|-------------------------------------------------------------------------|
B|-------------------------------------------------------------------------|
G|-------------------------------------------------------------------------|
D|-------3-3-2-2---------------------------3-3-2-2-5/7-7-7-5/7-7-7---------|
A|3-3-3--1-1-0-0-2-2-2-2-2-2-2-2-----3-3-3-1-1-0-0-3/5-5-5-3/5-5-5---------|
E|1-1-1----------0-0-0-0-0-0-0-0-----1-1-1---------------------------------|

e|-------------------------------------------------------------------------|
B|-------------------------------------------------------------------------|
G|-------------------------------------------------------------------------|
D|-------3-3-2-2---------------------------3-3-2-2-5/7-7-7-5/7-7-7---------|
A|3-3-3--1-1-0-0-2-2-2-2-2-2-2-2-----3-3-3-1-1-0-0-3/5-5-5-3/5-5-5-3-------|
E|1-1-1----------0-0-0-0-0-0-0-0-----1-1-1-------------------------1-------|

Väliosa (tulee säkeistön jälkeen)

e|-------------------------------------------------------------------------|
B|-------------------------------------------------------------------------|
G|-------------------------------------------------------------------------|
D|--------3-3-2-2---------3-3-2-2---------3-3-2-2--------------------------|
A|3-3-3-3-1-1-0-0-3-3-3-3-1-1-0-0-3-3-3-3-1-1-0-0--------------------------|
E|1-1-1-1---------1-1-1-1---------1-1-1-1----------------------------------|

Kertosäe (Ei sen kummempaa...)

e|-------------------------------------------------------------------------|
B|-------------------------------------------------------------------------|
G|-------------------------------------------------------------------------|
D|--------------------------------3-3-3-3-2-2-5-5/7-7-7-7-5/7-7-7-7--------|
A|3-3-3-3-3-3-3-3-2-2-2-2-2-2-2-2-1-1-1-1-0-0-3-3/5-5-5-5-3/5-5-5-5--------|
E|1-1-1-1-1-1-1-1-0-0-0-0-0-0-0-0------------------------------------------|

e|-------------------------------------------------------------------------|
B|-------------------------------------------------------------------------|
G|-------------------------------------------------------------------------|
D|--------------------------------3-3-3-3-2-2-5-5/7-7-7-7-5/7-7-7-7--------|
A|3-3-3-3-3-3-3-3-2-2-2-2-2-2-2-2-1-1-1-1-0-0-3-3/5-5-5-5-3/5-5-5-5--------|
E|1-1-1-1-1-1-1-1-0-0-0-0-0-0-0-0------------------------------------------|

Intro x3
1. Säkeistö
Väliosa x3
Kertosäe x2
Intro x2
2. Säkeistö
Väliosa x3
Kertosäe x4
************************************

| /   slide up
| \   slide down
| h   hammer-on
| p   pull-off
| ~   vibrato
| +   harmonic
| x   Mute note
| b   Bend
| pb  Pre-bend
| br  Bend release
| pbr Pre-bend release
| brb Bend release bend

************************************    

Added On December 16th, 2013

SHARE

Comments

blog comments powered by Disqus

ADVERTISEMENT