Kyuss Tabs

Space Cadet

5 versions

TAB

            Space Cadet Tab by Kyuss


Author/Artist: Kyuss
Title: Space Cadet
Album: Sky Valley
Transcribed by: southpaw25@ziplip.com
Username: okregisterme

% - rest
h - hammer-on
p - pull-on
x - muted string
/ - slide up
(fret number) - sound the note by sliding into it, don't pick
. - sound the note then dampen immediately
s - semi-tone bend
~ - vibrato

detune all strings one and one half notes from standard

here are some basic parts, listen for fills and variations
also an electric guitar plays fills

  verse (at 3:10) - acoustic guitar

1----------------------------------------------------------------
2----------------------------------------------------------------
3-------------7------7--6h7p6------------------7------7--6h7--6--
4------------------------------7---------------------------------
5-7--7----------------------------7---7--------------------------
6-0--0--%--0------0---------------0---0--%--0------0-------------

                                     .
1-----------------------------------------------------------------
2-----------------------------------------------------------------
3-------------7------7--6h7p6--------6--6h7-----6h7--6h7--6h7--6--
4------------------------------7----------------------------------
5-7--7------------------------------------------------------------
6-0--0--%--0------0---------------0----------0--------------------

  chorus

                              .        .                            .  .       ~
1---------------------------------------------------------------------------------
2-8--8-----8---8--8--8-----8/(10)---8/(10)---8-----7---8--7h8p7-------------------
3-x--x-----x---x--x--x-----x--------x--------x-------------------9--7--9--9s---9--
4-5--5--%--5---5--5--5-----5/(7)----5/(7)----5------------------------------------
5---------------------------------------------------------------------------------
6---------------------------------------------------------------------------------

                              .        .                                    ~
1--------------------------------------------------------10--------------------
2-8--8-----8---8---8-----8/(10)---8/(10)---8-----7h8p7-------8--7-----7--------
3-x--x-----x---x---x-----x--------x--------x-----------------------9-----9--9--
4-5--5--%--5---5---5-----5/(7)----5/(7)----5-----------------------------------
5------------------------------------------------------------------------------
6------------------------------------------------------------------------------

  2nd verse

  guitar 1 - acoustic

1-------------------------
2-8--8-----8--------------
3-9--9-----9--------------
4-9--9-----9--------7--7--
5-7--7--%--7--------------
6----------------0--------
|
| guitar 2 - acoustic
|
1-------------------------10--12--12--
2-------------------------------------
3-12--12-----12---12--12--------------
4-x---x------x------------------------
5-10--10--%--10-----------------------
6-------------------------------------

repeat chorus and 2nd verse, then solo
then repeat 1st verse, chorus, 2nd verse, and end with another chorus    

Added On December 5th, 2013

SHARE

Comments

blog comments powered by Disqus

VERSIONS

ADVERTISEMENT