L7 Tabs

Pretend Were Dead

7 versions

TAB

            Pretend Were Dead Tab by L7


L7
Pretend We're Dead
Tabbed By Robert Tabb
wrt2@students.uwf.edu

G1
e|-------------------------------------------------|
B|-------------------------------------------------|
G|--5--5--X--X---------------3--3--3---------------|
D|--5--5--X--X--3--3--X--X---3--3--3--5------------|
A|--3--3--X--X--3--3--X--X---1--1--1--5------------|
E|--------------1--1--X--X------------3---1--3--1--|

G2
e|-------------------------------------------------|
B|--------5----------------------------------------|
G|--5--5-----5--------2------3--3--3---------------|
D|--------------3--3-----3------------5---3--5--3--|
A|-------------------------------------------------|
E|-------------------------------------------------|

This is about it, if you have anything to add or any
corrections to make then please email me.    

Added On December 5th, 2013

SHARE

Comments

blog comments powered by Disqus