Labyrinth Tabs

Beneath Your Beautiful

1 versions

TAB

            (/) Slide Up  (\) Slide Down  (h) Hammer On  (p) Pull Off  (b) Bend (r) Release (v) Vibrato

The chords are played as roll-offs.
The lyrics aren't lined up to the notes but it's one note per syllable.

Capo 3rd fret


          C  Dm F                 G       C  Dm F              G
E|--------0--1--1--1--1--1--1--0----------0--1--1--1--1--1--0-----|
B|--1--3--1--3--1-----------------3--1h3--1--3--1--------------3--|
G|--------0--2--2-----------------0-------0--2--2--------------0--|
D|-----------0--------------------0----------0-----------------0--|
A|--------3-------------------------------3-----------------------|
E|--------------1-----------------3-------------1--------------3--|
  Would you let... me... see beneath your beautiful, Would you let... me... see beneath 
your perfect


E|--3--1--0--------3--1--0--------3--3--3--3--6--3--|
B|-----------1--1-----------1--1--------------------|
G|--------------------------------------------------|
D|--------------------------------------------------|
A|--------------------------------------------------|
E|--------------------------------------------------|
  Take it off now girl, take it off now girl, I wanna see inside

             C  F                 G
E|--3--1--0-----1--1--1--1--1--0-----------|
B|-----------1--1-----------------3--1--1--|
G|-----------0--2-----------------0--------|
D|-----------2--------------------0--------|
A|-----------3-----------------------------|
E|--------------1-----------------3--------|
   Would you let... me... see beneath your beautiful... Tonight    

Added On December 16th, 2013

SHARE

Comments

blog comments powered by Disqus

ADVERTISEMENT