Lamb of God Tabs

Broken Hands

2 versions

TAB

            Lamb Of God
Broken Hands
Wrath

tuning: drop C#(C#G#C#F#A#D#)

/ slide up
\ slide down
* pinch harmonic
~ vibrato
b bend to specified number of steps
h hammer on
p pull off
. palm mute

           intro/chorus guitar 1
|--------|-------------------------------------------------|
|--------|-------------------------------------------------|
|--------|-------------14----------------------14----------|
|--------|-12-12-13-12----13-12----12-13-12-------12----13-|3X
|-5-5----|----------------------15----------15-------15----|
|-5-5----|-------------------------------------------------|
  . .

|-------------------------------------|
|-------------------------------------|
|---------8---------------------------|
|---------x---------------------------|
|---------6-------5h6p5-----5h6p5-3h5-|
|-5-3-5-6---5-3-5-5h6p5-3-3-5h6p5-3h5-|
  . . . .   . . .       . .

          intro/chorus guitar 2
|--------------------------------------|---------------------------------|
|--------------------------------------|---------------------------------|
|--------------------------------------|---------------------------------|
|------0-0-0-0-0-0-0-0-0-0-0-0-6-6-6-6-|-5-5-5-5-5-5-5-3-3-3-3-3-3-3-3-3-|
|-5-5--0-0-0-0-0-0-0-0-0-0-0-0-6-6-6-6-|-5-5-5-5-5-5-5-3-3-3-3-3-3-3-3-3-|
|-5-5--0-0-0-0-0-0-0-0-0-0-0-0-6-6-6-6-|-5-5-5-5-5-5-5-3-3-3-3-3-3-3-3-3-|
  . .

|---------------------------------|-------------------------------------|
|---------------------------------|-------------------------------------|
|---------------------------------|---------8---------------------------|
|-6-6-6-6-6-6-6-6-6-6-6-6-6-6-6-6-|---------x---------------------------|
|-6-6-6-6-6-6-6-6-6-6-6-6-6-6-6-6-|---------6-------5h6p5-----5h6p5-3h5-|
|-6-6-6-6-6-6-6-6-6-6-6-6-6-6-6-6-|-3-5-3-6---5-3-5-5h6p5-3-3-5h6p5-3h5-|
                                    . . . .   . . .       . .
 
                                    

             verse guitars 1 and 2
|-----------||----------------------------------|
|-----------||----------------------------------|
|-----------||----------------------------------|
|-----------||----------------------------------|
|-0000-00-0-||-0000-00-0--000-0-0-3-0-4-0-3-0-1-|
|-0000-00-0-||-0000-00-0--000-0-0-3-0-4-0-3-0-1-|
  .... ..      .... ..    ...   .   .   .   .

|--------------------------------|
|--------------------------------|
|--------------------------------|
|--------------------------------|4X
|-0000-00-0--000-0-0-000-000-000-|
|-0000-00-0--000-0-0-000-000-000-|
  .... ..    ...   . ... ... ...

pre-chorus guitars 1 and 2
|--------------------------------------|
|--------------------------------------|
|--------------------------------------|
|--------------------------------------|2X
|--------------------------------------|
|-122222122222122222122222122222-4*b1~-|
  ..............................

|----------------------------------------|---------------------------------|
|----------------------------------------|---------------------------------|
|----------------------------------------|---------------------------------|
|----------------------------------------|---------------------------------|
|--------------------------------------3-|-----------------------------2-1-|
|-222-2--222-2--222-2--222-2--222-10\66--|-222-2--222-3--222-1--222-1--2-1-|
  ...    ...    ...    ...    ...          ...    ...    ...    ...    . .

chorus

verse

pre-chorus

chorus

solo
|------------------------|-------------------|----------------------|
|-10-------10-------12---|-13-----13---------|-15-----15------------|
|-12b1~----12b1~----14b1-|-15b1---15b1~------|-17b1---17b1~---------|
|------------------------|-------------------|----------------------|
|------------------------|-------------------|----------------------|
|------------------------|-------------------|----------------------|

|--------------------------------------------------------------------------|
|-19-16-------19p16-19p16-------21p19-21p19-------19p16-------19p16--------|
|-------19-18-------------19-18-------------19-18-------19-18--------19-18-|
|--------------------------------------------------------------------------|
|--------------------------------------------------------------------------|
|--------------------------------------------------------------------------|

|-----------------|
|-21b1~-----------|
|-----------------|
|-----------------|
|-----------------|
|-----------------|


rhythm for solo
|---------------------------------|
|---------------------------------|
|---------------------------------|
|-3-3-3-0-0-0-6-6-6-0-0-0-000-0-0-|
|-3-3-3-0-0-0-6-6-6-0-0-0-000-0-0-|
|-3-3-3-0-0-0-6-6-6-0-0-0-000-0-0-|
                          ... . .

3rd verse
|--------------------------|
|--------------------------|
|--------------------------|
|--------------------------|repeat
|--------------------------|
|-000000000--0000000-00000-|
  .........  ....... .....

|---------------------------------|     |----------------------------------|
|---------------------------------|     |----------------------------------|
|---------------------------------|     |----------------------------------|
|-3-3-3-0-0-0-6-6-6-0-0-0-000-0-0-|2x   |----------------------------------|
|-3-3-3-0-0-0-6-6-6-0-0-0-000-0-0-|     |----------------------------------|
|-3-3-3-0-0-0-6-6-6-0-0-0-000-0-0-|     |-33333300000066666600000000000000-|
                          ... . .         ................................

chorus

outro(use first verse riff)

then
|--------------------------|
|--------------------------|
|--------------------------|
|--------------------------|
|-0000-00-0--000-0-0-000-0-|
|-0000-00-0--000-0-0-000-0-|
  .... ..    ...   . ...    

Added On December 16th, 2013

SHARE

Comments

blog comments powered by Disqus

VERSIONS

ADVERTISEMENT