Lamb of God Tabs

Walk With Me In Hell

7 versions

TAB

            Walk With Me In Hell Tab by Lamb Of God


-------------------------------------------------------------------------------
			     Walk With Me In Hell - Lamb of God
-------------------------------------------------------------------------------
Tabbed by: Mustaine	
Email: kreator11@gmail.com

Tuning: Drop D

e|---------------------------------------------------------------------------|
B|---------------------------------------------------------------------------|
G|----14-13--------------14-13---------------14-13---------------------------|
D|-12-------12-14-15--12-------12-14-15---12-------14------------------------|
A|---------------------------------------------------------------------------|
D|---------------------------------------------------------------------------|
                  X3                                                          

e|---------------------------------------------------------------------------|
B|---------------------------------------------------------------------------|
G|----14-13--------------14-13------------------12---------------------------|
D|-12-------12-14-15--12-------12-14-15------14----14------------------------|
A|----------------------------------------15---------------------------------|
D|---------------------------------------------------------------------------|
                                                                              

e|---------------------------------------------------------------------------|
B|---------------------------------------------------------------------------|
G|------15-14----------------15-14----------------15-14----------------------|
D|-------------12-14-15------------12-14-15-------------15-------------------|
A|--13--------------------13-------------------13----------------------------|
D|---------------------------------------------------------------------------|
                3X                                                            

e|---------------------------------------------------------------------------|
B|---------------------------------------------------------------------------|
G|----15-14--------------15-14------------------12---------------------------|
D|----------12-14-15-----------12-14-15------14----14------------------------|
A|-13-----------------13------------------15---------------------------------|
D|---------------------------------------------------------------------------|
                                                                              

e|---------------------------------------------------------------------------|
B|---------------------------------------------------------------------------|
G|----14-13--------------14-13---------------14-13---------------------------|
D|-12-------12-14-15--12-------12-14-15---12-------14------------------------|
A|---------------------------------------------------------------------------|
D|---------------------------------------------------------------------------|
                      x3                                                      

e|---------------------------------------------------------------------------|
B|---------------------------------------------------------------------------|
G|-----14-13--------------14-13-----------------12---------------------------|
D|--12-------12-14-15--12-------12-14-15-----14----14------------------------|
A|----------------------------------------15---------------------------------|
D|---------------------------------------------------------------------------|

e|---------------------------------------------------------------------------|
B|---------------------------------------------------------------------------|
G|----15-14---------------15-14----------------15-14-------------------------|
D|----------12-14-15------------12-14-15-------------15----------------------|
A|-13-----------------13--------------------13-------------------------------|
D|---------------------------------------------------------------------------|
                                                                            

e|---------------------------------------------------------------------------|
B|---------------------------------------------------------------------------|
G|----15-14--------------15-14-----------------------------------------------|
D|----------12-14-15-----------12-14-15--------------------------------------|
A|-13-----------------13-----------------------------------------------------|
D|--------------------------------------------8-10v--------------------------|
                                                                              

e|---------------------------------------------------------------------------|
B|---------------------------------------------------------------------------|
G|---------------------------------------------------------------------------|
D|---------------------------------------------------------------------------|
A|---------------------------------------------------------------------------|
D|-0-10-12--0-10-12--0-10-12-13-12-10--0-10-12-13----------------------------|
                      X3                                                      

e|---------------------------------------------------------------------------|
B|---------------------------------------------------------------------------|
G|---------------------------------------------------------------------------|
D|---------------------------------------------------------------------------|
A|---------------------------------------------------------------------------|
D|-0-12-10--0-10-8--0-8-7--0-7-5--0-5-3-1------------------------------------|
                                                                              

e|---------------------------------------------------------------------------|
B|---------------------------------------------------------------------------|
G|---------------------------------------------------------------------------|
D|---------------------------------------------------------------------------|
A|---------------------------------------------------------------------------|
D|-0-0-0-0-0-0---0-0-0-0--1-0--0-0-0-0-0-0---0-12-10--0-10-8--0-8-7--0-7-5--0|
                                                                              

e|---------------------------------------------------------------------------|
B|---------------------------------------------------------------------------|
G|---------------------------------------------------------------------------|
D|---------------------------------------------------------------------------|
A|---------------------------------------------------------------------------|
D|-5-3-1---------------------------------------------------------------------|

e|---------------------------------------------------------------------------|
B|---------------------------------------------------------------------------|
G|---------------------------------------------------------------------------|
D|---------------------------------------------------------------------------|
A|-----------------------------------------5-3-1-3-1-0-1---------------------|
D|-6-6-6-6-6-6-6-6--7-6-7-6--6-6-6-6-6---6---------------7-5-7-5-3-5-3-1-----|

e|---------------------------------------------------------------------------|
B|---------------------------------------------------------------------------|
G|---------------------------------------------------------------------------|
D|-------------------------------------------------5\4----5h7h8p7p5-7p5-4h5--|
A|----------------------1--------------------6\5-----------------------------|
D|0-0-0-0-0-0--0-0-0-0--1--0-0-0-0-0-0-0--0------0------0--------------------|

e|---------------------------------------------------------------------------|
B|---------------------------------------------------------------------------|
G|---------------------------------------------------------------------------|
D|--------------------------------------------5\4---5-7-8-7-5-7-5-4-5--------|
A|---------1----------------1----------6\5-----------------------------------|
D|-0-0-0-0-1-0-0-0--0-0-0-0-1-0-0-0-0------0------0--------------------------|

e|---------------------------------------------------------------------------|
B|---------------------------------------------------------------------------|
G|------------------------------------------------------------7-5-3-5--------|
D|------------------------------------------5\4----5-7-8-7-5-----------------|
A|--------1----------------1----------6\5------------------------------------|
D|0-0-0-0-1-0-0-0--0-0-0-0-1-0-0-0-0------0-----0----------------------------|

e|---------------------------------------------------------------------------|
B|---------------------------------------------------------------------------|
G|---------------------------------------------------------------------------|
D|---------------------------------------------------------------------------|
A|---------------------------------------------------------------------------|
D|-8-8-8-8-8-8--8-8-8-8--10-8-10-8--8-8-8-8-8--12-10-8-10-8-7-8-7-5-7-5-3-5-3|

e|---------------------------------------------------------------------------|
B|---------------------------------------------------------------------------|
G|---------------------------------------------------------------------------|
D|---------------------------------------------------------------------------|
A|---------------------------------------------------------------------------|
D|-1-0-----------------------------------------------------------------------|

e|---------------------------------------------------------------------------|
B|---------------------------------------------------------------------------|
G|---------------------------------------------------------------------------|
D|---------------------------------------------------------------------------|
A|---------------------------------------------------------------------------|
D|0-0--0-0-0-0--0--0-0--0-0-0-0--0--0-0--0-0-0-0--0--0-0---0-0-0--3-1-4-3-1-4|

e|---------------------------------------------------------------------------|
B|---------------------------------------------------------------------------|
G|---------------------------------------------------------------------------|
D|---------------------------------------------------------------------------|
A|---------------------------------------------------------------------------|
D|-3-1---0-0---0-0-0-0--0--0-0-----------------------------------------------|
                                 etc                                             

e|---------------------------------------------------------------------------|
B|---------------------------------------------------------------------------|
G|---------------------------------------------------------------------------|
D|----------15-14---------------14-13-----------------------15-14------------|
A|------12-------------------11-----------10-13-12-------12---------------11-|
D|-0-0--------------0-0-0-0------------0------------0-0-----------0-0-0-0----|

e|---------------------------------------------------------------------------|
B|---------------------------------------------------------------------------|
G|---------------------------------------------------------------------------|
D|-14-13---------8-----------15-14------------14-13--------------------15-14-|
A|----------10-9----------12---------------11---------10-13-12------12-------|
D|-------0------------0-0----------0-0-0-0----------0-----------0-0----------|

e|---------------------------------------------------------------------------|
B|---------------------------------------------------------------------------|
G|---------------------------------------------------------------------------|
D|---------------------------------------------------------------------------|
A|---------------------------------------------------------------------------|
D|-0-0-0-3-1-4-3-1-4-3-1-----------------------------------------------------|

e|---------------------------------------------------------------------------|
B|---------------------------------------------------------------------------|
G|---------------------------------------------------------------------------|
D|---------------------------------------------------------------------------|
A|---------------------------------------------------------------------------|
D|-0-0-0-0-0-0-0-0-0--0-0-0--0-0-0-0--7-7-7-7-7--7-7-7--7-7-7-7-7-7-7-7--3-3-|

e|---------------------------------------------------------------------------|
B|---------------------------------------------------------------------------|
G|---------------------------------------------------------------------------|
D|---------------------------------------------------------------------------|
A|---------------------------------------------------------------------------|
D|-3-3-6-6-6-6-6--6-6-6--6-6-6-6--7-7-7-7--3--3-3-3--3-3-3-3-3--5-5-5-5------|

e|---------------------------------------------------------------------------|
B|---------------------------------------------------------------------------|
G|---------------------------------------------------------------------------|
D|---------------------------------------------------------------------------|
A|---------------------------------------------------------------------------|
D|-0-0-0--0-0-0-0-0-0-0-0-0-0-0-0-0-0---7-7-7-7-7-7-7-7-7-7-7-7-7-7-7-7-7--3-|

e|---------------------------------------------------------------------------|
B|---------------------------------------------------------------------------|
G|---------------------------------------------------------------------------|
D|---------------------------------------------------------------------------|
A|---------------------------------------------------------------------------|
D|-3-3-3--6-6-6-6-6-6-6-6-6-6-6-6--7-7-7-7--3-3-3-3-3-3-3-3--5-5-5-5--0-0-0-0|

e|---------------------------------------------------------------------------|
B|---------------------------------------------------------------------------|
G|---------------------------------------------------------------------------|
D|---------------------------------------------------------------------------|
A|---------------------------------------------------------------------------|
D|--0------7-----3--3/6----7-3------5----------------------------------------|

| /  slide up
| \  slide down
| h  hammer-on
| p  pull-off
| ~  vibrato
| +  harmonic
| x  Mute note
===============================================================================    

Added On December 5th, 2013

SHARE

Comments

blog comments powered by Disqus