Left Alone Tabs

Every Night

1 versions

TAB

            Left Alone
Dead American Radio
Every Night

Intro/Chorus:
---------------------------------------------------------------------|
---------------------------------------------------------------------|
-------------------7-7-7-7-7-7-7-7-4-4-4-4-4-4-4-4-5-5-5-5-5-5-5-5---|
---5-5-5-5-5-5-5-5-7-7-7-7-7-7-7-7-4-4-4-4-4-4-4-4-5-5-5-5-5-5-5-5---|
---5-5-5-5-5-5-5-5-5-5-5-5-5-5-5-5-2-2-2-2-2-2-2-2-3-3-3-3-3-3-3-3---| x2
---3-3-3-3-3-3-3-3---------------------------------------------------|

Verse:
-------------------------------------------------------|
-------------------------------------------------------|
-------------------7---------------4---------------5---|
---5---------------7---------------4---------------5---|
---5---------------5---------------2---------------3---| x2
---3---------------------------------------------------|    

Added On December 16th, 2013

SHARE

Comments

blog comments powered by Disqus

ADVERTISEMENT