Less Than Jake Tabs

Mr Chevy Celebrity

1 versions

TAB

            Mr Chevy Celebrity Tab by Less Than Jake


Song- Mr. Chevy Celebrity
Artist- Less Than Jake
Tabbed by- The Great Jenji


well I thought all my friends were sane....
----------------------------|
----------------------------|
--------8--11---------------|
-11--8--8--11---------------|
-11--8--6--9----------------|
-9---6----------------------|
i never wanted to go....
----------------------------|
----------------------------|
----11----------------------|
-8--11--11------------------|
-8--9---11------------------|
-6------9-------------------|
have another drink....
----------------------------|
----------------------------|
------6---------------------|
-6--4-6--6------------------|
-6--4-4--6------------------|
-4--2----4------------------|    

Added On December 5th, 2013

SHARE

Comments

blog comments powered by Disqus

ADVERTISEMENT