Limbeck Tabs

Sin City

1 versions

TAB

            Sin City Chords by Limbeck

 [Sin City]
 ::Limbeck::
"Let Me Come Home"
Standard tuning - capo on 4

Chords to know:  (relative to capo)     {o = play open string}
E|--x---3---x---2-------
A|--x---2---o---2-------
D|--o---o---2---4-------
G|--2---o---2---4-------
B|--3---3---2---3-------
e|--2---3---o---2-------
    D
D
e |---|-x-|---|---|---|
B |---|---|-x-|---|---|
G |---|-x-|---|---|---|
D |---|---|---|---|---|
A |---|---|---|---|---|
E |---|---|---|---|---|
G
G
e |---|---|-x-|---|---|
B |---|---|---|---|---|
G |---|---|---|---|---|
D |---|---|---|---|---|
A |---|-x-|---|---|---|
E |---|---|-x-|---|---|
A
A
e |---|---|---|---|---|
B |---|-x-|---|---|---|
G |---|-x-|---|---|---|
D |---|-x-|---|---|---|
A |---|---|---|---|---|
E |---|---|---|---|---|
D#m
D#m
e |---|-x-|---|---|---|
B |---|---|---|-x-|---|
G |---|---|-x-|---|---|
D |---|---|---|-x-|---|
A |---|---|---|---|---|
E |---|---|---|---|---|
{v} Verse: D
D
e |---|-x-|---|---|---|
B |---|---|-x-|---|---|
G |---|-x-|---|---|---|
D |---|---|---|---|---|
A |---|---|---|---|---|
E |---|---|---|---|---|
, G
G
e |---|---|-x-|---|---|
B |---|---|---|---|---|
G |---|---|---|---|---|
D |---|---|---|---|---|
A |---|-x-|---|---|---|
E |---|---|-x-|---|---|
, A
A
e |---|---|---|---|---|
B |---|-x-|---|---|---|
G |---|-x-|---|---|---|
D |---|-x-|---|---|---|
A |---|---|---|---|---|
E |---|---|---|---|---|
{c
c
e |---|---|-x-|---|---|
B |-x-|---|---|---|---|
G |---|---|---|---|---|
D |---|-x-|---|---|---|
A |---|---|-x-|---|---|
E |---|---|---|---|---|
} Chorus: D
D
e |---|-x-|---|---|---|
B |---|---|-x-|---|---|
G |---|-x-|---|---|---|
D |---|---|---|---|---|
A |---|---|---|---|---|
E |---|---|---|---|---|
, G
G
e |---|---|-x-|---|---|
B |---|---|---|---|---|
G |---|---|---|---|---|
D |---|---|---|---|---|
A |---|-x-|---|---|---|
E |---|---|-x-|---|---|
, D#m
D#m
e |---|-x-|---|---|---|
B |---|---|---|-x-|---|
G |---|---|-x-|---|---|
D |---|---|---|-x-|---|
A |---|---|---|---|---|
E |---|---|---|---|---|
, A
A
e |---|---|---|---|---|
B |---|-x-|---|---|---|
G |---|-x-|---|---|---|
D |---|-x-|---|---|---|
A |---|---|---|---|---|
E |---|---|---|---|---|
, D
D
e |---|-x-|---|---|---|
B |---|---|-x-|---|---|
G |---|-x-|---|---|---|
D |---|---|---|---|---|
A |---|---|---|---|---|
E |---|---|---|---|---|
, G
G
e |---|---|-x-|---|---|
B |---|---|---|---|---|
G |---|---|---|---|---|
D |---|---|---|---|---|
A |---|-x-|---|---|---|
E |---|---|-x-|---|---|
, A
A
e |---|---|---|---|---|
B |---|-x-|---|---|---|
G |---|-x-|---|---|---|
D |---|-x-|---|---|---|
A |---|---|---|---|---|
E |---|---|---|---|---|
LYRICS: {v} April started out in Texas, then I went and took a drive through the desert, And I like this city now, 'cause you're in it. Sin City's not such a bad place to visit. {c} I used to hate that city, I never liked that place it's true. But now I like Sin City, 'cause it's got you. {v} I used to think nothing good came from your city, 'cause of another seven days that we're missin'. October, November, on through the New Year, and 1,2,3,4 months more. {v} I went Oh my Lord, Oh my Lord, I went Oh my Lord. You went Oh my Lord! What have I done? {c} But now I like your city, now you like my city too. I like Sin City, 'cause it's got you. {c} I used to hate that city, No, I ain't gonna lie to you. I like Sin City, 'cause of you. Yeah, I do. {v} April came around so quickly, you know the desert heat don't agree with me, And I like your city now and the people in it. No, Sin City's not such a bad place to visit. {c} So now I like your city, now you like my city, too. Now I like Sin City, 'cause it's got you. {c} I used to hate that city, No, I ain't gonna lie to you. I like Sin City, 'cause of you. Yeah, I do. I know I love this song. Rock the harmonica and someone figure out the solo. ~TheRoadsideNews~ www.theroadsidenews.tk Email: theroadsidenews@hotmail.com

Added On December 5th, 2013

SHARE

Comments

blog comments powered by Disqus

ADVERTISEMENT