Lostprophets Tabs

Heaven For The Weather Hell For The Company

2 versions

TAB

            Heaven For The Weather Hell For The Company Tab by Lostprophets


Lostprophets - Heaven For The Weather, Hell For The Company

Drop D

Intro

|------6------------------6-------------|----6----------------6--------------|
|--------6-7--------7-------6-9-------6-|------6-7-------7------6-9-------6--|
|---8------------6------8-----------6---|--8----------6-----8-----------6----|
|------------8-------------------8------|----------8-----------------8-------|
|---------------------------------------|------------------------------------|
|---------------------------------------|------------------------------------|



|---------------------------------------------------|
|---------------------------------------------------|
|---------------------------------------------------|
|---8-8--4-6-6-4---6-6--4-6-6-4---1-1--4-6-6-4------|
|---8-8------------6-6------------1-1---------------|
|---8-8------------6-6------------1-1---------------|

Pre Chorus

|----------------------------------------------------------------------------------|
|----------------------------------------------------------------------------------|
|----------------------------------------------------------------------------------|
|-13-13-13-13-13-13-13-13-9-9-9-9-9-9-9-9-8-8-8-8-8-8-8-8-12-12-12-12-12-12-12-12--|   x 2
|-13-13-13-13-13-13-13-13-9-9-9-9-9-9-9-9-8-8-8-8-8-8-8-8-12-12-12-12-12-12-12-12--|
|-13-13-13-13-13-13-13-13-9-9-9-9-9-9-9-9-8-8-8-8-8-8-8-8-12-12-12-12-12-12-12-12--|

Chorus

|-------------------------------------------------------------------------------------------------------------------------------|
|-------------------------------------------------------------------------------------------------------------------------------|
|-------------------------------------------------------------------------------------------------------------------------------|
|--8-8--8--------8-8--8---------6-6--6--------6-6--6---------4-4-4-4-4-4-4-4-4-4-4-4-4-4-4-4-6-6-6-6-6-6-6-6-6-6-6-6-6-6-6-6----|
|--8-8--8--------8-8--8---------6-6--6--------6-6--6---------4-4-4-4-4-4-4-4-4-4-4-4-4-4-4-4-6-6-6-6-6-6-6-6-6-6-6-6-6-6-6-6----|
|--8-8--8--------8-8--8---------6-6--6--------6-6--6---------4-4-4-4-4-4-4-4-4-4-4-4-4-4-4-4-6-6-6-6-6-6-6-6-6-6-6-6-6-6-6-6----|



|-----------------------------------------------------------------------------------------------------------------------------------|
|-----------------------------------------------------------------------------------------------------------------------------------|
|-----------------------------------------------------------------------------------------------------------------------------------|
|-8-8-8-8-8-8-8-8-8-8-8-8-8-8-8-8-6-6-6-6-6-6-6-6-6-6-6-6-6-6-6-6-4-4-4-4-4-4-4-4-4-4-4-4-4-4-4-4-6-6-6-6-6-6-6-6-6-6-6-6-6-6-6-6---|
|-8-8-8-8-8-8-8-8-8-8-8-8-8-8-8-8-6-6-6-6-6-6-6-6-6-6-6-6-6-6-6-6-4-4-4-4-4-4-4-4-4-4-4-4-4-4-4-4-6-6-6-6-6-6-6-6-6-6-6-6-6-6-6-6---|
|-8-8-8-8-8-8-8-8-8-8-8-8-8-8-8-8-6-6-6-6-6-6-6-6-6-6-6-6-6-6-6-6-4-4-4-4-4-4-4-4-4-4-4-4-4-4-4-4-6-6-6-6-6-6-6-6-6-6-6-6-6-6-6-6---|

Solo

|----------------------------------------------------------------------------------------------------------------------------|
|----------------------------------------------------------------------------------------------------------------------------|
|------------------------------------------------------------6-----6-----6-6-----6-----8-6---6-----8-6---6-------------------|
|---8~-8-8-8~-6-8-8~-8-8-8~-6-8-8~-8-8-8~-6-8-8~-8-8-8~-6-8----8-6---8-6-----8-6---8-6-----8---8-6-----8---8-6---------------|
|----------------------------------------------------------------------------------------------------------------------------|
|----------------------------------------------------------------------------------------------------------------------------|

                                                                  

|----------------------------------------------------------------------------------------------------------------------------|
|-----------------------------------------------------------6-----9-6----13-6---13~------------------------------------------|
|---8-6---6-----------6-----8-6---6-----------6-------8-6-----8--------------------------------------------------------------|
|-------8---8-6-8-6-8---8-6-----8---8-6-8-6-8---8-6-------8-----8------8------8----------------------------------------------|
|----------------------------------------------------------------------------------------------------------------------------|
|----------------------------------------------------------------------------------------------------------------------------|
                                                                 *                 *
                                                                  Not sure about this bit


|-----------------------------------------------------------------------------------------------------------------------------------|
|-----------------------------------------------------------------------------------------------------------------------------------|
|-----------------------------------------------------------------------------------------------------------------------------------|
|---8-8--8----------------------6-6--6-----------------------4-4-4-4-4-4-4-4-4-4-4-4-4-4-4-4-6-6-6-6-6-6-6-6-6-6-6-6-6-6-6-6--------|
|---8-8--8----------------------6-6--6-----------------------4-4-4-4-4-4-4-4-4-4-4-4-4-4-4-4-6-6-6-6-6-6-6-6-6-6-6-6-6-6-6-6--------|
|---8-8--8----------------------6-6--6-----------------------4-4-4-4-4-4-4-4-4-4-4-4-4-4-4-4-6-6-6-6-6-6-6-6-6-6-6-6-6-6-6-6--------|


|-----------------------------------------------------------------------------------------------------------------------------------|
|-----------------------------------------------------------------------------------------------------------------------------------|
|-----------------------------------------------------------------------------------------------------------------------------------|
|-8-8-8-8-8-8-8-8-8-8-8-8-8-8-8-8-6-6-6-6-6-6-6-6-6-6-6-6-6-6-6-6-4-4-4-4-4-4-4-4-4-4-4-4-4-4-4-4-6-6-6-6-6-6-6-6-6-6-6-6-6-6-6-6---|
|-8-8-8-8-8-8-8-8-8-8-8-8-8-8-8-8-6-6-6-6-6-6-6-6-6-6-6-6-6-6-6-6-4-4-4-4-4-4-4-4-4-4-4-4-4-4-4-4-6-6-6-6-6-6-6-6-6-6-6-6-6-6-6-6---|
|-8-8-8-8-8-8-8-8-8-8-8-8-8-8-8-8-6-6-6-6-6-6-6-6-6-6-6-6-6-6-6-6-4-4-4-4-4-4-4-4-4-4-4-4-4-4-4-4-6-6-6-6-6-6-6-6-6-6-6-6-6-6-6-6---|

Repeat till end    

Added On December 5th, 2013

SHARE

Comments

blog comments powered by Disqus

VERSIONS

ADVERTISEMENT