Macklemore Tabs

Neon Cathedral

1 versions

TAB

            Might not be the whole tab, but it sounds great,... isn't it all about the sound anyway?

Just ignore the notes in the (brackets), that's just how I like to play it.


E--------------------------------------|
A--------------------------------------|
D--12--14 /s--17--16--14--12--9--------|
G--------------------------------------|
B--------------------------------------|
e--------------------------------------|

E------------------------------|
A-----------12-----------------|
D-12--h--14----14--------------|
G------------------------------|
B------------------------------|
e------------------------------|

E--------------------------------------------------|
A--------------------------------------------------|
D--12--14--/s--17--16--14--12--9--14--12--7--12--9-|
G--------------------------------------------------|
B--------------------------------------------------|
e--------------------------------------------------|

E----------------------------------------------------------------------------|
A----------------------------------------------------------------------------|
D--12--h--14-/s-16-/s-14-------10--14--12--9--12-------12--h--14-/s-17--14---|
G----------------------------------------------------------------------------|
B----------------------------------------------------------------------------|
e----------------------------------------------------------------------------|

E-------------------------------------------------------------------|
A-------------------------------------------------------------------|
D--12--14 /s--17--16--14--12--9-----14--12--14--19--17--14--19--17--|
G------------------------------------x8--x3--x8--x2--x2--x8--x2--x2-|
B-------------------------------------------------------------------|
e-------------------------------------------------------------------|

That's it. Now it should be around 01:16 or something.    

Added On December 16th, 2013

SHARE

Comments

blog comments powered by Disqus

ADVERTISEMENT