Marilyn Manson Tabs

Antichrist Superstar

8 versions

TAB

            Antichrist Superstar Tab by Marilyn Manson


ong: Antichrist Superstar 
Artist: Marilyn Manson 
Album: Antichrist Superstar 
As tabbed by Posthuman

Intro (x8) 
e--------------------------------------------------------- 
B--------------------------------------------------------- 
G-----4------4-------------------------------------------- 
D-----4------4--------------------------------------------
A-----2------2-------------------------------------------- 
E--------------------------------------------------------- 
 

Pre-Chorus A 
e--------------------------------------------------------- 
B--------------------------------------------------------- 
G---4-4-0-4-2------------------4-4-0-4-------------------- 
D---4-4-0-4-2---(all x3 then)--4-4-0-4-3-2-0-------------- 
A---2-2-0-2--------------------2-2-0-2-3-2-0--------------
E--------------------------------------------------------- 

Verse 
e--------------------------------------------------------- 
B--------------------------------------------------------- 
G--4-4---4------------------------------------------------ 
D--4-4-0-4------------------------------------------------ 
A--2-2-0-2------------------------------------------------ 
E--------------------------------------------------------- 
("You built me up...")


Chorus A  
e--------------------------------------------------------- 
B--------------------------------------------------------- 
G-7-7-6-5-----4-4-0-4--4-0-4------------------------------
D-7-7-6-5-----4-4-0-4--4-0-4------------------------------ 
A-5-5-4-3-----2-2-0-2--2-0-2------------------------------ 
E--------------------------------------------------------- 
("Cut the head off...") 

e---------------------------------------------------------
B---------------------------------------------------------
G--4-4-0-4------------------------------------------------
D--4-4-0-4-3-2-0------------------------------------------
A--2-2-0-2-3-2-0------------------------------------------
E---------------------------------------------------------

This tab is 100% correct trust me.........    

Added On December 5th, 2013

SHARE

Comments

blog comments powered by Disqus