Matches Tabs

Wake The Sun

2 versions

TAB

            I know there are two guitars in this song, but i tabbed it all for one

Intro/Verse:

e|--8----8----8---|--8----8----8---|
B|----8----8----8-|----8----8----8-|
G|5-----5----5----|5-----5----5----|
D|----------------|----------------|
A|----------------|----------------|
E|----------------|----------------|

|---------x5------|
e|----------------|----------------|
B|----------------|--6----6----6---|
G|--5----5------5-|----5----5----5-|
D|----5----5------|3-----3----3----|
A|3-----3----00---|----------------|
E|----------------|----------------|

|---------x3------|-------x2-------|
e|----------------|----------------|
B|----------------|--6----6----6---|
G|--5----5------5-|----5----5----5-|
D|----5----5------|3-----3----3----|
A|3-----3----00---|----------------|
E|----------------|----------------|

Chorus:
e|----------------|----------------|----------------|
B|----------------|----------------|--6----6----6---|
G|--5----5----5---|--5----5----5---|----5----5----5-|
D|----5----5----5-|----5----5----5-|3-----3----3----|
A|3-----3----3----|3-----3----3----|----------------|
E|----------------|----------------|----------------|

e|----------------|----------------|----------------|----------------|
B|----------------|----------------|--6----6----6---|--6----6----6---|
G|--5----5----5---|--5----5----5---|----5----5----5-|----5----5----5-|
D|----5----5----5-|----5----5----5-|3-----3----3----|3-----3----3----|
A|3-----3----3----|3-----3----3----|----------------|----------------|
E|----------------|----------------|----------------|----------------|

Verse 2:
e|--8----8----8---|
B|----8----8----8-|
G|5-----5----5----|
D|----------------|
A|----------------|
E|----------------|

|---------x3------|
e|----------------|----------------|
B|----------------|--6----6----6---|
G|--5----5------5-|----5----5----5-|
D|----5----5------|3-----3----3----|
A|3-----3----00---|----------------|
E|----------------|----------------|

|---------x3------|-------x2-------|
e|----------------|----------------|
B|----------------|--6----6----6---|
G|--5----5------5-|----5----5----5-|
D|----5----5------|3-----3----3----|
A|3-----3----00---|----------------|
E|----------------|----------------|

Chorus:
e|----------------|----------------|----------------|
B|----------------|----------------|--6----6----6---|
G|--5----5----5---|--5----5----5---|----5----5----5-|
D|----5----5----5-|----5----5----5-|3-----3----3----|
A|3-----3----3----|3-----3----3----|----------------|
E|----------------|----------------|----------------|

e|----------------|----------------|----------------|----------------|
B|----------------|----------------|--6----6----6---|--6----6----6---|
G|--5----5----5---|--5----5----5---|----5----5----5-|----5----5----5-|
D|----5----5----5-|----5----5----5-|3-----3----3----|3-----3----3----|
A|3-----3----3----|3-----3----3----|----------------|----------------|
E|----------------|----------------|----------------|----------------|

Bridge:
e|----------------|----------------|----------------|----------------|
B|----------------|----------------|----------------|----------------|
G|--5-4--------7~-|----------------|----------------|7h9p7h9p7h9p7h9-|
D|----------------|----------------|7~--------------|----------------|
A|----------------|----------------|----------------|----------------|
E|----------------|----------------|----------------|----------------|

e|----------------|--------------------------------|----------------|
B|----------------|--------------------------------|----------------|
G|5---------------|----------------7h9p7h9p7h9p7h9-|5---------------|
D|------7---------|5-------------------------------|----------------|
A|----------------|--------------------------------|----------------|
E|----------------|--------------------------------|----------------|

e|--8----8----8---|
B|----8----8----8-|
G|5-----5----5----|
D|----------------|
A|----------------|
E|----------------|

Solo:
e|---------------0|-------7--------|-10--8--10h12-8-|-8----8-----------|
B|------------1h3-|--3-1----8------|-------8------10|---10--12-10-10-12|
G|----------------|----------------|----------------|------------------|
D|----------------|----------------|----------------|------------------|
A|----------------|----------------|----------------|------------------|
E|----------------|----------------|----------------|------------------|

e|----------------|-5-5-45-8---3---|-5-5-45-8---4---|--5-5-45-8--10-12|
B|----------------|----------5-----|----------5-----|----------------|
G|--9-6-9-10-9h6h9|----------------|----------------|----------------|
D|----------------|----------------|----------------|----------------|
A|----------------|----------------|----------------|----------------|
E|----------------|----------------|----------------|----------------|

Chorus:
e|----------------|----------------|----------------|----------------|
B|----------------|----------------|--6----6----6---|--6----6----6---|
G|--5----5----5---|--5----5----5---|----5----5----5-|----5----5----5-|
D|----5----5----5-|----5----5----5-|3-----3----3----|3-----3----3----|
A|3-----3----3----|3-----3----3----|----------------|----------------|
E|----------------|----------------|----------------|----------------|

Verse 3:
e|--8----8----8---|
B|----8----8----8-|
G|5-----5----5----|
D|----------------|
A|----------------|
E|----------------|

|---------x3------|
e|----------------|----------------|
B|----------------|--6----6----6---|
G|--5----5------5-|----5----5----5-|
D|----5----5------|3-----3----3----|
A|3-----3----00---|----------------|
E|----------------|----------------|

|---------x3------|-------x2-------|
e|----------------|----------------|
B|----------------|--6----6----6---|
G|--5----5------5-|----5----5----5-|
D|----5----5------|3-----3----3----|
A|3-----3----00---|----------------|
E|----------------|----------------|

Chorus:
e|----------------|----------------|----------------|
B|----------------|----------------|--6----6----6---|
G|--5----5----5---|--5----5----5---|----5----5----5-|
D|----5----5----5-|----5----5----5-|3-----3----3----|
A|3-----3----3----|3-----3----3----|----------------|
E|----------------|----------------|----------------|

e|----------------|----------------|----------------|----------------|
B|----------------|----------------|--6----6----6---|--6----6----6---|
G|--5----5----5---|--5----5----5---|----5----5----5-|----5----5----5-|
D|----5----5----5-|----5----5----5-|3-----3----3----|3-----3----3----|
A|3-----3----3----|3-----3----3----|----------------|----------------|
E|----------------|----------------|----------------|----------------|

e|----------------|----------------|----------------|
B|----------------|----------------|--6----6----6---|
G|--5----5----5---|--5----5----5---|----5----5----5-|
D|----5----5----5-|----5----5----5-|3-----3----3----|
A|3-----3----3----|3-----3----3----|----------------|
E|----------------|----------------|----------------|

e|----------------|----------------|----------------|----------------|
B|----------------|----------------|--6----6----6---|--6----6----6---|
G|--5----5----5---|--5----5----5---|----5----5----5-|----5----5----5-|
D|----5----5----5-|----5----5----5-|3-----3----3----|3-----3----3----|
A|3-----3----3----|3-----3----3----|----------------|----------------|
E|----------------|----------------|----------------|----------------|

e|----------------|--8----8----8---|----------------|
B|--6----6----6---|----8----8----8-|----------------|
G|----5----5----5-|5-----5----5----|5~--------------|
D|3-----3----3----|----------------|----------------|
A|----------------|----------------|----------------|
E|----------------|----------------|----------------|    

Added On December 16th, 2013

SHARE

Comments

blog comments powered by Disqus

VERSIONS

ADVERTISEMENT