Matt Skiba Tabs

Voices

1 versions

TAB

            VOICES
MATT SKIBA AND THE SEKRETS
BABYLON

TABBED BY E_MERICANA@HOTMAIL.COM

WORK OUT STRUMMING PATTERN

INTRO

e----------------------------------------------|
B----------------------------------------------|
G--7--9-11--4--12--11--------------------------|
D--x--x--x--x---x---x--------------------------|
A--5--7--9--2--10---9--------------------------|
E----------------------------------------------|

VERSE

e------------X---|
B------------X---|
G-7--4--12--X----|
D-7--4--12--X----|
A-5--2--10--X----|
E------------X---|

CHORUS
e--------------|
B--------------|
G-----7--9--7--|
D--5--7--7--7--|
A--5--5--0--0--|
E--3-----------|

VERSE

CHORUS

BRIDGE (PALM MUTED)
e--------------------------------|
B--------------------------------|
G--------------------------------|
D--99-99-1212-77-55-55-44-22-----|
A--99-99-1212-77-55-55-55-00-----|
E--------------------------------|

CHORUS

END    

Added On December 16th, 2013

SHARE

Comments

blog comments powered by Disqus

ADVERTISEMENT