Mayday Parade Tabs

Jamie All Over

7 versions

TAB

            Verse
e|---------------------------------------------------------------------------|
B|---------------------------------------------------------------------------|
G|-6-6---6-6-6---6-6-6-------------------------------------------------------|
D|-6-6---6-6-6---6-6-6---6-6---6-6-6---6-6-6---4-4---4-4-4---4-4-4---4-4-----|
A|-4-4---4-4-4---4-4-4---6-6---6-6-6---6-6-6---4-4---4-4-4---4-4-4---4-4-----|
D|-----------------------6-6---6-6-6---6-6-6---4-4---4-4-4---4-4-4---4-4-----|

e|---------------------------------------------------------------------------|
B|---------------------------------------------------------------------------|
G|---------------------------------------------------------------------------|
D|-4-4-4---4-4-4-------------------------------------------------------------|
A|-4-4-4---4-4-4-------------------------------------------------------------|
D|-4-4-4---4-4-4-------------------------------------------------------------|

Not too sure about the pre-chorus so I just play this:
e|---------------------------------------------------------------------------|
B|-6-(x8)--4-(x8)------------------------------------------------------------|
G|----------------6-(x8)-----------------------------------------------------|
D|-----------------------6-(x8)----------------------------------------------|
A|---------------------------------------------------------------------------|
D|---------------------------------------------------------------------------|

Chorus (I am not going to put the strumming)
e|---------------------------------------------------------------------------|
B|---------------------------------------------------------------------------|
G|-6-------------------------------------------------------------------------|
D|-6---4----8--6--4----------------------------------------------------------|
A|-4---4----8--6--4----------------------------------------------------------|
D|-----4----8--6--4----------------------------------------------------------|

Verse
Pre-chorus
Chorus

Bridge-ish Part
e|------------------------------------------------------4-----------4--------|
B|--------------6---4h6p4-----------------------------4---4-------4---4------|
G|------------------------6------------------6~-----6-------6---6-------6----|
D|-8--6--4---------------------8--6--4---6---6~---6-----------6-----------4--|
A|-8--6--4---------------------8--6--4---6---4~---------------------------4--|
D|-8--6--4---------------------8--6--4---6--------------------------------4--|

Chorus


Ending
e|---------------------------------------------------------------------------|
B|---------------------------------------------------------------------------|
G|-6-------------------------------------------------------------------------|
D|-6--6-4--------------------------------------------------------------------|
A|-4--6-4--------------------------------------------------------------------|
D|----6-4--------------------------------------------------------------------|

That is not 100% correct but sounds good and as you can tell there are some parts I am 
lazy to try to figure out right now.
                                     ~Quincy    

Added On December 16th, 2013

SHARE

Comments

blog comments powered by Disqus