McLusky Tabs

No New Wave No Fun

1 versions

TAB

            -------------------------------------------
-------------------------------------------
-------------------------------------------
-------------------------------------------
-----5-5---5-5---5-5-----5-5---5-5---5-4---
-0-0-----0-----0-----0-0-----0-----0-------

------------------------------------------------------------
-------------11-11-12-11-11-11-12-11-11-11-12-11-11-11-12---
--11----13--------------------------------------------------
------------------------------------------------------------
------------------------------------------------------------
------------------------------------------------------------

---10---------------------------
---10---------------------------
---12--------------------------- plays this at end of what seems to be chorus
---12---------------------------
---10---------------------------
--------------------------------
   
-----------------------------------
---11t12t11t12t11t12t11---15t--12t-   played at the end   t=tremolo or trill
-----------------------------------
-----------------------------------
-----------------------------------
-----------------------------------    

Added On December 16th, 2013

SHARE

Comments

blog comments powered by Disqus

ADVERTISEMENT