Melvins Tabs

Lizzy

2 versions

TAB

            Lizzy Tab by Melvins


Lizzy   
        by the Melvins
        from the album "Houdini"
        music by Buzz Osborne
        tabbed by baggins + ben.nield@gmail.com
 
Standard Tuning
 
~ = Bend Some
\ = Slide Down
/ = Slide Up
()= Harmonics

VERSE
E ----------------
B ----------------
G --2-------------
D --2---2--4--4---
A --0---0--0--3---
E ----------------
 
CHORUS

E ----------------------------------------------------------
B ----------------------------------------------------------
G -----------7-6-----6---6-6-6------------------------------
D -2-2-2-2---7-6-----6---6-6-6------------------------------
A -2-2-2-2---5-4-----4---4-4-4------------------------------
E -0-0-0-0--------------------------------------------------
 
SOLO

E ----------------------------------------------------------
B -------------5~~-----------7~~~----8\7--------------------
G ---------5---5~~---5---5-x-7~~~----8\7--5-----------------
D -2/7---7---x---------7---------------------7--5-7---------
A -0--------------------------------------------------------
E ----------------------------------------------------------

END 

E ------------------------------------------------
B ------------------------------------------------
G ------------------------------------------------
D –(7)-------------(7)-------------(7)------------
A –----(7)-(12)--------(7)-(12)--------(7)-(12)---
E ------------------------------------------------


E ----------------------------------------------------------
B ------------------------(12)------------------------------
G -------------------(12)-----------------------------------
D –(7)----------(12)----------------------------------------
A –----(7)-(12)---------------------------------------------
E -----------------------------(12)-------------------------    

Added On December 5th, 2013

SHARE

Comments

blog comments powered by Disqus

VERSIONS

ADVERTISEMENT