Michigan Tabs

Compte A Rebours

1 versions

TAB

            intro;
e| 0-0-0---0-2-----------------|
B| -------2---2---0-2-3-3-2-0--|
G| -2-2-2----(2)2----(2)-------|  (x2)
D| ----------------------------|
A| ----------------------------|
E| ----------------------------|

verse;
intro x2

chorus;
...

pre-verse;
e| 0-0-0---0-2----------------|
B| -------2---2-2-0-3---------|.......
G| -2-2-2----(2)--2--(2)------| (x1)
D| ---------------------------|
A| ---------------------------|
E| ---------------------------|

verse;
intro x2

chorus x2

outro;
intro x2

http://michiganmusique.com/    

Added On December 16th, 2013

SHARE

Comments

blog comments powered by Disqus

ADVERTISEMENT