Misc Cartoons Tabs

Beck - Moon On The Water

4 versions

TAB

            Beck - Moon On The Water Tab by Misc Cartoons


Ok, this is the tabs for Moon on the Water which featured in BECK, and performed how 
times? 3? One by Beat Crusaders, another by Tanaka Koyuki & Minami Maho, and Tanaka and The 
Breed. x_x

Anyway, this is my version for the song, a bit tweaked, but I think it sounds fine.


Verse:

Repeat these parts.
You can either pick or strum.

     E              Asus2        C#m         B
E|---------------------------------------------------|
B|-------9--------------10------------4h5-------5p4--|
G|-------9------------9---9-8---------6---------4----|
D|-----9---9--8-----7---------------6----------4-----|
A|---7-------------(0)-----------4-----------2-------|
E|---------------------------------------------------|

   Asus2
E|-------0-----------------0-|
B|----0-----0---0------0-----|
G|------2-----2----------2---|
D|---2----------------2------|
A|-0----------------0--------|
E|---------------------------|

     E              Asus2        C#m         B
E|---------------------------------------------------|
B|-------9--------------10------------4h5-------5p4--|
G|-------9------------9---9-8---------6---------4----|
D|-----9---9--8-----7---------------6----------4-----|
A|---7-------------(0)-----------4-----------2-------|
E|---------------------------------------------------|

   Asus2
E|-------0-----------------0-|
B|----0-----0---0------0-----|
G|------2-----2----------2---|
D|---2----------------2------|
A|-0----------------0--------|
E|---------------------------|

Before the chorus, the way I would play it is to keep strumming Asus2 instead of picking.


Chorus:

        C#m     Asus2       E        B
E|--------4--------0--------0--------2--------|
B|--------5--------0--------0--------4--------|
G|--------6--------2--------1--------4--------|
D|--------6--------2--------2--------4--------|
A|--------4--------0--------2--------2--------|
E|--------------------------0-----------------|

       F#m7              Asus2
E|--------4-----------------0-----------------|
A|--------5-----------------0-----------------|
G|--------6-----------------2-----------------|
D|--------6-----------------2-----------------|
A|--------4-----------------0-----------------|
E|--------------------------------------------|    

Added On December 5th, 2013

SHARE

Comments

blog comments powered by Disqus