Misc Cartoons Tabs

Ducktales Tv Theme

1 versions

TAB

            -----------------------------------------------------------------
DuckTales TV Theme
-----------------------------------------------------------------
Vocal track arranged for guitar
Tabbed by: Alexander Craig

Tuning: EADGBe

e|---------------------------------------------------------------|
B|-------3-2-2-3-------------------------------------------------|
G|---1-4---------4-2---2-1---2-1---------------------------------|
D|-2-------------------------------------------------------------|
A|---------------------------------------------------------------|
E|---------------------------------------------------------------|

e|---------------------------------------------------0-2-4\2-0---|
B|-------3-2-2-3-------3-2---3-2---------2-2-0-----2-------------|
G|---1-4---------4-2-------------------2-------------------------|
D|-2---------------------------------4---------------------------|
A|---------------------------------------------------------------|
E|---------------------------------------------------------------|

e|-0-0----------0-------0-------0-0----------0-------0-------0-0-|
B|-0-0--5/12\9----3-1-3---3-1-3-0-0--5/12\9----3-1-3---3-1-3-0-0-|
G|---------------------------------------------------------------|
D|---------------------------------------------------------------|
A|---------------------------------------------------------------|
E|---------------------------------------------------------------|

e|-0-0-0-4-0-------0---0-0-0-4-0-5-5-4-0---2-2-4-6-4-2-4-2-2-----|
B|-----------0-0-2---------------------------------------2-2-----|
G|---------------------------------------------------------------|
D|---------------------------------------------------------------|
A|---------------------------------------------------------------|
E|---------------------------------------------------------------|

e|-------------2-0---0-2-0---0-2-2-------------------------------|
B|-7/14\11---------3-------3---2-2-------------------------------|
G|---------------------------------------------------------------|
D|---------------------------------------------------------------|
A|---------------------------------------------------------------|
E|---------------------------------------------------------------|

e|-------------2-0---0-2-0---0-2-2-------------------------------|
B|-7/14\11---------3-------3---2-2-------------------------------|
G|---------------------------------------------------------------|
D|---------------------------------------------------------------|
A|---------------------------------------------------------------|
E|---------------------------------------------------------------|

e|-------------2-0---0-2-0---0-2-2-------------------------------|
B|-7/14\11---------3-------3---2-2-----7/14\11-------------------|
G|---------------------------------------------------------------|
D|---------------------------------------------------------------|
A|---------------------------------------------------------------|
E|---------------------------------------------------------------|

| /  slide up
| \  slide down
| h  hammer-on
| p  pull-off
| ~  vibrato
| +  harmonic
| x  Mute note    

Added On December 16th, 2013

SHARE

Comments

blog comments powered by Disqus

ADVERTISEMENT