Misc Unsigned Bands Tabs

Saving Serenity - The 3 Steps To Dying Album

1 versions

TAB

            Saving Serenity - The 3 Steps To Dying Tab by Misc Unsigned Bands


 so this is my band. saving serenity. were kind of an emo/punk revivalist band. me and
friends: Johnathan(vocalist), Donald(bass), T.C.(drums), and Nate < me > (guitar). we
about 3 songs and recorded them on Donalds computer. then burnt 4 copies for ourselves. 
here is the album.

 Where Were You. (i put the tab up for this recently under the name "the burning
we changed our name.

Every song is tuned down a half step.


1. Where Were You.
intro
|----clean------|
|---------------|
|---0--0--0--0--|
|--4--4--4--4---| x2
|-2--3--5--5----|
|---------------|
verse
|-------------------clean---------------------|
|---------------------------------------------|
|----0---0---0---0----------------------------| x2
|---4---4---4---4----9------9------9------9---|
|--2---2---5---5---10-10--10-10--10-10--10-10-|
|-0---0---3---3---8------8------7------7------|

|----clean------|
|---------------|
|---0--0--0--0--|
|--4--4--4--4---| x2
|-2--3--5--5----|
|---------------|

|----------------clean------------------------|
|---------------------------------------------|
|----0---0---0---0----------------------------|
|---4---4---4---4----9------9------9------9---|
|--2---2---2---5---10-10--10-10--10-10--10-10-|
|-0---0---3---3---8------8------7------7------|
this time you only play this once.
|----clean------|
|---------------|
|---0--0--0--0--|
|--4--4--4--4---| x2
|-2--3--5--5----|
|---------------|

chorus pt1 clean
|-0----3----0----2----|
|-0----0----1----3----|
|-0----0----0----2----|
|-2----0----2----0----|
|-2----2----3----0----|
|-0----3----0---------|
chorus pt2 dist
|-----------------------------------------------------|
|-----------------------------------------------------|
|-----------------------------------------------------|
|----------------------------5-55-5-55-5-55-7X-4h5p4--| x2
|-2222-2-22-2-2-----5-55-5-5-3-33-3-33-3-33-5X------5-|
|-0000-0-00-0-0-0h2-3-33-3-3--------------------------|
pm....                         ..   ..

bridge
|-----------------clean------------------|
|----------------------------------------|
|---0--0--0--0---0--0--0--0---0--0--0--0-|
|--4--4--4--4---4--4--4--4---4--4--4--4--|
|-2--3--5--5---2--3--5--5---2--3--5--5---|
|----------------------------------------|

|--------------------------|
|--------------------------|
|-444444555555777777-------|
|-xxxxxxxxxxxxxxxxxx-------|
|-2222223333335555555~~----|
|--------------------------|

after this play the 2nd part of the chorus over again.

end on
|---------|
|---------|
|---------|
|---------|
|-2222-2--|
|-0000-0--|
pm....

key
pm - palm mute
x - mute string
X - mute chord
h - hammer on
p - pull off
~ - vibrato

2. sing the sorrow

intro clean                this part is dist.
|----0----0------|----|----------------------------|
|---3----3----3--|----|----------------------------|
|--4----4----4---|----|---------0---0--------------|
|-5----4----0----|---------------------------------|
|--------------------------------------------------|
|--------------------------------------------------|

then its the chorus and end on
|-------------|
|-------------|
|-------------|
|-540-540-----|
|---------2-2-|
|---------0-0-|

key
 harmonics
\ slide down to...from
/ slide up to...from
X\ pick slide
X mute chord
x mute string
p pull off
h hammer on
pm palm mute


3. Black Clouds Fill Blue Skies

intro
|----------------------------------------------------------|
|----------------------------------------------------------|
|-------------------------------------------4-44-4-4444444-|
|-2-22-2-222-22-2-22-2-222-22---------------x-xx-x-xxxxxxx-| x2
|-0-00-0-000-00-3-33-3-333-33-5-55-5-555-55-2-22-2-2222222-|
|-----------------------------3-33-3-333-33-0-00-0-0000000-|

chorus
|---------------------------------------------------------------|
|---------------------------------------------------------------|
|---------------------------------------------------------------|
|-2-2-5-55-5-555-2-2-5-55-5-555-2-2-5-55-5-555-----------555/77-| x2
|-0-0-0-33-3-333-0-0-0-33-3-333-0-0-0-33-3-333-555555555-333/55-|
|----------------------------------------------333333333-000-00-|

|-------------------------------------------------------------|
|-------------------------------------------------------------|
|-------------------------------------------------------------|
|-2-2-2-22-2-2-2-2-2-22-2-2-2-2-2-22-2-22-2-2-----------------|
|-0-0-3-33-3-3-0-0-3-33-3-3-0-0-3-33-3-33-3-3-2-222222222-2==-|
|---------------------------------------------0-000000000-0h3-|
pm. . . .. . . . . . .. . . . . . .. . .. . .   ....

pre chorus
|---------------------------------------------------|
|---------------------------------------------------|
|---------------------------------------------------|
|-2-2-5-5-------2-2-5-5------2-2-5-5--------------5-|
|-0-0-3-35-5-5--0-0-3-35-5-5-0-0-3-35-5-5-2-22222-2-|
|--------3-3-3---------3-3-3--------3-3-3-0-00003-3-|

the chorus is the same but the chords are octave slides.
|--------------------------------------------------------------|
|--------------------------------------------------------------|
|-141414-14/16-16-16/17-191919-19\17 17 17\14-1414141414141414-|
|-xxxxxx-xx-xx-xx-xx-xx-xxxxxx-xx-xx-xx-xx-xx-xxxxxxxxxxxxxxxx-|
|-121212-12/14-14-14/15-171717-17\15-15-15\14-1212121212121212-|
|----------------------------------------------0-0-0-0-0-0-0-0-|

instead of
|--------|
|--------|
|--------|
|-555/77-
|-333/55-
|-000-00-

the second verse just play the pre chorus

and after you play the pre chorus play
|-----------------|
|-----------------|
|-----------------|
|------|
|-2X------------2-|
|-0============-0-

in this chorus the octave become
|----------------------------------------------------------|
|----------------------------------------------------------|
|-14141416161617171919191717171616-21----------------------|
|-xxxxxxxxxxxxxxxxxxxxxxxxxxxxxxxx-xx----------------------|
|-12121214141415151717171515151414-19----19b//20br\\19~~---|
|----------------------------------------------------------|

BRIDGE
|------------------|
|------------------|
|-9---10---9---7---|
|--7----7---7---7--| x4
|---0----0---0---0-|
|------------------|

|------------------|
|------------------|
|-9999999999999999-
|-7777777777777777-
|-0000000000000000-
|------------------

solo/interluede
|------------------|    |------------------------------|
|------------------|    |------------------------------|
|-1414141616161717-|    |-14---16--17-1919191717171616-|
|-1616161616161616-|    

Added On December 5th, 2013

SHARE

Comments

blog comments powered by Disqus

ADVERTISEMENT