Moby Tabs

Isolate

1 versions

TAB

            Okay so it’s my first tab - if you’re like me (not very good), you can just tune the low 
E to a G and not have to stretch your manly sausage fingers so much (playing the 3 low 
notes in the last two bars of "A" open).

A:
e|-----3--|--3-----|-----3--|----3---|
B|--------|--------|--------|--------|
G|--2---2-|-2-2----|--2---2-|--2-----|
D|---2---2|------2-|---2---2|---2----|
A|0---0---|0---0---|--------|--------|
E|--------|--------|3---3---|3-------|

B:
e|-----3--|--3-----|-----3--|----3---|
B|--------|--------|--------|--------|
G|--0---0-|-0-0----|--0---0-|--0-----|
D|---2---2|------2-|---2---2|---2----|
A|3---3---|3---3---|2---2---|2-------|
E|--------|--------|--------|--------|

Remember: We are all made of stars.    

Added On December 16th, 2013

SHARE

Comments

blog comments powered by Disqus

ADVERTISEMENT