Movie Theme Tabs

Pirates Of The Caribbean Main Theme

1 versions

TAB

            My version of Pirates of the Carribean Theme Song..


e-------------------------------------------------------------|
B-------------------------------------------------------------|
G---5-7-7-7-9-10-10-10-12-9-9-7-5-7---------------------------|
D-7---------------------------------7-------------------------|
A-------------------------------------------------------------|
E-------------------------------------------------------------|

This Part X 2


e-----------------------------------------------------------------|
B-----------6-8-8-8-10-11-11-10-8-10-----------6-8-10-6-5-5-6-5---|
G---5-7-7-7--------------------------7---7-7-7--------------------|
D-7---------------------------------------------------------------|
A-----------------------------------------------------------------|
E-----------------------------------------------------------------|


e------------------------------------------------------------------|
B--10-10-10-11-10-8-8-8-8-10-10-10-10-11-10-8-6-5-3----------------|
G------------------------------------------------------------------|
D------------------------------------------------------------------|
A------------------------------------------------------------------|
E------------------------------------------------------------------|


e--------------------------------------------------------|
B--3-5-6-8-10-8-6-5-6-8-10-8-6-8-10-8-6-5-6-5-3-1-3------|
G--------------------------------------------------------|
D--------------------------------------------------------|
A--------------------------------------------------------|
E--------------------------------------------------------|


e-----------------------------------1-5-6-3-----------|
B---3-5-6-5-6-8-6-8-10-8-6-3--3-3-3---------6-5-3-1-3-|
G-----------------------------------------------------|
D-----------------------------------------------------|
A-----------------------------------------------------|
E-----------------------------------------------------|

e------------------------------------------------------------|
B--10-11-10-10-10-10-8-8-6-5-6-5-3-1-3-----------------------|
G------------------------------------------------------------|
D------------------------------------------------------------|
A------------------------------------------------------------|
E------------------------------------------------------------|

This Part X 2    

Added On December 16th, 2013

SHARE

Comments

blog comments powered by Disqus

ADVERTISEMENT