Mumford And Sons Tabs

To Darkness

1 versions

TAB

            To Darkness by Mumford and Sons
TUNING: D A D F A E
TIP: when i play i put more ephasis on the low D and F strings, i hardly play the A 
string at all but these are the chords i think he uses.
these are the chords i use for the main riff. listen to the song for timing
only pluck the low D and the F string for the first 3 chords

E |-------------------------------------------------|
A |-------------------------------------------------|
F |-12--11--9----7--5--4--2--4--2-0-----------------|
D |-0---0---0----0--0--0--0--0--0-0-----------------|
A |-0---0---0----0--0--0--0--0--0-0-----------------|
D |-12--10--8----7--5--3--2--3--2-0-----------------|


e |--------------------------------------------------------|
A |--------------------------------------------------------|
F |--12--11--9-----7---------5---4---2---4---2---0---------|
D |--0---0---0-----0---------0---0---0---0---0---0---------|
A |--0---0---0-----0---------0---0---0---0---0---0---------|
D |--12--10--8-----7---------5---3---2---3---2---0---------|
             I    will not faaa-aaa-aaa-aaa-aaa-aall
            Once  more I'm caaa-aaa-aaa-aaa-aaa-alled
            Time comes for  aaa-aaa-aaa-aaa-aaa-all
            Then dark  is   who-ooo-ooo-ooo-ooo-ole




e |--------------------------------------------------|
A |--------------------------------------------------|
F |----4---2---4----2----4------7---4---0--5---------|
D |----0---0---0----0----0------0---0---0--0---------|
A |----0---0---0----0----0------0---0---0--0---------|
D |----3---2---3----2----3------7---3---0--5---------|
   But oh, my heart was flawed  I knew my weakness
   So hold my hand  Subscribe   me not to darkness

then repeat for the rest of the song.    

Added On December 16th, 2013

SHARE

Comments

blog comments powered by Disqus

ADVERTISEMENT