My American Heart Tabs

Ruins We Hold

1 versions

TAB

            -------------------------------------------------------------------------------
			     The Ruins We Hold - My American Heart
-------------------------------------------------------------------------------
Tabbed by:heyitsthemokid

Tuning:Drop D

ill fix up this tab at some other time.

--------------------------------------------------------------------------------------------|
---------------------6-6------------8-8-----------------------------------------------------|
----------------5-5-------7-7------------5-5-5-7-----7-7-----9-9-9-7-----7-7-----7-9-7------|
-------------------------------3-3----------------8-------8-----------8-------8---------8---|
-3--5--8---5-5------------------------------------------------------------------------------|
--------------------------------------------------------------------------------------------|

--------------------------------------------------------------------------------------------|
-----------6-6------------8-8---------------------------------------------------------------|
------5-5-------7-7------------5-5-5-7-----7-7-----9-9-9-7-----7-7--------------------------|
---------------------3-3----------------8-------8-----------8-------8-----------------------|
-5-5----------------------------------------------------------------------------------------|
--------------------------------------------------------------------------------------------|


--------------------------------------------------------------------------------------------|
--------------------------------------------------------------------------------------------|
------------------------12---12---12-12----7-7-7-7-7--------5--5-5--------------------------|
-12-12---11-/-12---0----x----x----x--x-----5-5-5-5-5--0--3--3--3-3-----x2-------------------|
-12-12---11-/-12---0----10---10---10-10----5-5-5-5-5--0--3--3--3-3--------------------------|
-12-12---11-/-12---0-----------------------5-5-5-5-5--0--3--3--3-3--------------------------|


--------------------------------------------------------------------------------------------|
--------------------------------------------------------------------------------------------|
-9-9-9-9---12-12-12-12-----------------9-9--9-9---------------------------------------------|
-7-7-7-7---10-10-10-10---10-10-10-10---7-7--7-7----x2---------------------------------------|
-5-5-5-5---10-10-10-10---8--8--8--8----7-7--7-7---------------------------------------------|
-----------10-10-10-10---8--8--8--8----7-7--7-7---------------------------------------------|


--------------------------------------------------------------------------------------------|
--------------------------------------------------------------------------------------------|
-----------------------------------------------------------------------------------------7--|
-0-0-0-0-----------------0-0-0-0-----------------0-0-0-0------------------------------------|
-0-0-0-0--5-h7-p5--3-0---0-0-0-0--3-h5-p0--8-5---0-0-0-0--5-h7-p5--3-0----------------------|
-0-0-0-0-----------------0-0-0-0-----------------0-0-0-0-----------------3-3-3-3---5-5------|
_______ _________ _________ _____________
p.m p.m p.m p.m


--------------------------------------------------------------------------------------------|
--------------------------------------------------------------------------------------------|
--------------------------------------------------------------------------------------------|
-0-0-0-0-----------------0-0-0-0-----------------0-0-0-0------------------------------------|
-0-0-0-0--5-h7-p5--3-0---0-0-0-0--3-h5-p0--8-5---0-0-0-0--5-h7-p5--3-0----------------------|
-0-0-0-0-----------------0-0-0-0-----------------0-0-0-0-----------------3-3-3-3---5-5-5----|
_______ _________ _________ _______________
p.m p.m p.m p.m


--------------------------------------------------------------------------------------------|
--------------------------------------------------------------------------------------------|
-----12-12-12-12-12-12-12-12-12-12-12-12-12-12-12-12-12-12-12-12-12-12-12-12-12-12-12-12-12-|
-0---x--x--x--x--x--x--x--x--x--x--x--x--x--x--x--x--x--x--x--x--x--x--x--x--x--x--x--x--x--|
-0---10-10-10-10-10-10-10-10-10-10-10-10-10-10-10-10-10-10-10-10-10-10-10-10-10-10-10-10-10-|
-0------------------------------------------------------------------------------------------|

--------------------------------------------------------------------------------------------|
--------------------------------------------------------------------------------------------|
----7-7-7------7-7-7-------10-10-10-----10-10-10--------------------------------------------|
-0--x-x-x---0--x-x-x----0--x--x--x---0--x--x--x---------------------------------------------|
-0--5-5-5---0--5-5-5----0--8--8--8---0--8--8--8---------------------------------------------|
-0----------0-----------0------------0------------------------------------------------------|

--------------------------------------------------------------------------------------------|
--------------------------------------------------------------------------------------------|
-----12-12-12-12-12-12-12-12-12-12-12-12-12-12-12-12-12-12-12-12-12-12-12-12-12-12-12-12-12-|
-5---x--x--x--x--x--x--x--x--x--x--x--x--x--x--x--x--x--x--x--x--x--x--x--x--x--x--x--x--x--|
-5---10-10-10-10-10-10-10-10-10-10-10-10-10-10-10-10-10-10-10-10-10-10-10-10-10-10-10-10-10-|
-5------------------------------------------------------------------------------------------|

--------------------------------------------------------------------------------------------|
--------------------------------------------------------------------------------------------|
----7-7-7------7-7-7-------10-10-10-10-10-10-10-10-10-10-10---------------------------------|
-0--x-x-x---0--x-x-x----0--x--x--x--x--x--x--x--x--x--x--x----------------------------------|
-0--5-5-5---0--5-5-5----0--8--8--8--8--8--8--8--8--8--8--8----------------------------------|
-0----------0-----------0-------------------------------------------------------------------|

--------------------------------------------------------------------------------------------|
--------------------------------------------------------------------------------------------|
--------------------------------------------------------------------------------------------|
-10-10-10-10-10-10-10-10-10-10-10---10-10-10-10-10---10-10-10-10-10---x2--------------------|
-8--8--8--8--8--8--8--8--8--8--8----7--7--7--7--7----0--0--0--0--0--------------------------|
-8--8--8--8--8--8--8--8--8--8--8----7--7--7--7--7----0--0--0--0--0--------------------------|

-----------------------------------------------------------------------------------|
-----------------------------------------------------------------------------------|
-5-0-7-0-9-0-10-0-9-0-7-0-5-h7-0-5-0-7-0-9-0-10-0-9-0-7-0-5^-----------------------|
-----------------------------------------------------------------------------------|
-----------------------------------------------------------------------------------|
-----------------------------------------------------------------------------------|

-------------------------------------------------------------------------------------|
-------------------------------------------------------------------------------------|
-5-0-7-0-9-0-10-0-9-0-7-0-5-h7-0-5-0-7-0-9-0-10--------------------------------------|
---------------------------------------------------3-0-5-0-7-0-----------------------|
-------------------------------------------------------------------------------------|
-------------------------------------------------------------------------------------|

----------------------------------------------------------------------------------------|
----------------------------------------------------------------------------------------|
----------------------------------------------------------------------------------------|
-0-0-0-0-0-0-0-0-0-0-0--10-10-10-10-10-10-10-10-10-10-10--10-10-10-10-10--3-3-3-3-3-----|
-0-0-0-0-0-0-0-0-0-0-0--10-10-10-10-10-10-10-10-10-10-10---9--9--9--9--9--3-3-3-3-3-----|
-0-0-0-0-0-0-0-0-0-0-0--10-10-10-10-10-10-10-10-10-10-10---9--9--9--9--9--3-3-3-3-3-----|

-----------------------------------------------------------------------------------|
-----------------------------------------------------------------------------------|
-----------------------------------------------------------------------------------|
-8-8--10-10--10/-12----------------------------------------------------------------|
-8-8--10-10--10/-12----------------------------------------------------------------|
-8-8--10-10--10/-12----------------------------------------------------------------|

--------------------------------------------------------------------------|
--------------------------------------------------------------------------|
--------------------------------------------------------------------------|
-0-0-0----10-10-10-10-10-10-10-10-10-10-10--10-10-10-10-10--3-3-3-3-3-----|
-0-0-0----10-10-10-10-10-10-10-10-10-10-10---9--9--9--9--9--3-3-3-3-3-----|
-0-0-0----10-10-10-10-10-10-10-10-10-10-10---9--9--9--9--9--3-3-3-3-3-----|

--------------------------------------------------------------------------------|
--------------------------------------------------------------------------------|
--------------------------------------------------------------------------------|
-8-8--10-10--10/-12--10/-12--0-0------------------------------------------------|
-8-8--10-10--10/-12--10/-12--0-0------------------------------------------------|
-8-8--10-10--10/-12--10/-12--0-0------------------------------------------------|
___
P.M


----------------------------------------------------------------------------------------|
----------------------------------------------------------------------------------------|
-12--12--12-----------------------------------------------------------------------------|
-x---x---x----5-5-5-5-5---0---3-3-3-3-3-------------------------------------------------|
-10--10--10---5-5-5-5-5---0---3-3-3-3-3-------------------------------------------------|
--------------5-5-5-5-5---0---3-3-3-3-3-------------------------------------------------|

-----------------------------------------------------------------------------------|
-----------------------------------------------------------------------------------|
------------------------12---12----12----7-7-7-7-7---------------------------------|
-12-12---11-/-12---0----x----x-----x-----5-5-5-5-5--0--3--3---0-0-0----------------|
-12-12---11-/-12---0----10---10----10----5-5-5-5-5--0--3--3---0-0-0----------------|
-12-12---11-/-12---0---------------------5-5-5-5-5--0--3--3---0-0-0----------------|
_____
P.M


---------------------------------------------------------------------------------------|
---------------------------------------------------------------------------------------|
---------------------------------------------------------------------------------------|
-14-14-14-14-14--14-14-14-14-14---12-12-12-12-12--12-12-12-12-12---x2------------------|
-12-12-12-12-12--10-10-10-10-10---9--9--9--9--9---8--8--8--8--8------------------------|
-12-12-12-12-12--10-10-10-10-10---9--9--9--9--9---8--8--8--8--8------------------------|

---------------------------------------------------------------------------------------|
---------------------------------------------------------------------------------------|
---------------------------------------------------------------------------------------|
-10-10-10-10-10--10-10-10--0-----10-10-10-10-10--10-10-10--0---------------------------|
-8--8--8--8--8---7--7--7---0-----8--8--8--8--8---7--7--7---0---------------------------|
-8--8--8--8--8---7--7--7---0-----8--8--8--8--8---7--7--7---0---------------------------|

-------------------------------------------------------------------------------------|
--------------6-6------------8-8-----------------------------------------------------|
---------5-5-------7-7------------5-5-5-7-----7-7-----9-9-9-7-----7-7-----7-9-7------|
------------------------3-3----------------8-------8-----------8-------8---------8---|
----5-5------------------------------------------------------------------------------|
-------------------------------------------------------------------------------------|

--------------------------------------------------------------------------------------------|
-----------6-6------------8-8---------------------------------------------------------------|
------5-5-------7-7------------5-5-5-7-----7-7-----9-9-9-7-----7-7--------------------------|
---------------------3-3----------------8-------8-----------8-------8-----------------------|
-5-5----------------------------------------------------------------------------------------|
--------------------------------------------------------------------------------------------|

--------------------------------------------------------------------------------------------|
---------------------6-6------------8-8-----------------------------------------------------|
----------------5-5-------7-7------------5-5-5-7-----7-7-----9-9-9-7-----7-7-----7-9-7------|
-------------------------------3-3----------------8-------8-----------8-------8---------8---|
-3--5--8---5-5------------------------------------------------------------------------------|
--------------------------------------------------------------------------------------------|

-------------------------------------------------------------------------------------------|
-----------6-6------------8-8--------------------------------------------------------------|
------5-5-------7-7------------5-5-5-7-----7-7-----9-9-9-7-----7-7--9>---------------------|
---------------------3-3----------------8-------8-----------8------------------------------|
-5-5---------------------------------------------------------------------------------------|
-------------------------------------------------------------------------------------------|


solo kind of thing
bend slighty towards end
-10-10-10-10-10-10-10-10/-12-12-12-12-12-12-12-12--13-13-13-13-13-13-13-13-13-13-13-13-13-13-13--|
---------------------------------------------------------------------13-13-13-13-13-13-13-13-13--|
-------------------------------------------------------------------------------------------------|
-------------------------------------------------------------------------------------------------|
-------------------------------------------------------------------------------------------------|
-------------------------------------------------------------------------------------------------|

-8-h10------------------------------------8>----------------------------------------|
--------6-h8p-6---------------6/-8--6-----------------------------------------------|
-----------------5-h7--5/-0------------7--------------------------------------------|
------------------------------------------------------------------------------------|
------------------------------------------------------------------------------------|
------------------------------------------------------------------------------------|

-------------------------8-h10--13---------------------------8-h10--|
-------6-h8--------6-h8--------------------6-h8--------6-h8---------|
-5-h7--------5-h7--------------------5-h7--------5-h7---------------|
--------------------------------------------------------------------|
--------------------------------------------------------------------|
--------------------------------------------------------------------|

bend slighty towards end
-13-13-13-13-13-13-13-13-13-13-13-13-13-13-13-13-13-13-13-13-13-13-13--|
----------------------------------------------13-13-13-13-13-13-13-13--|
-----------------------------------------------------------------------|
-----------------------------------------------------------------------|
-----------------------------------------------------------------------|
-----------------------------------------------------------------------|

---------------------------------------------------------------------------------------|
---------------------------------------------------------------------------------------|
---------------------------------------------------------------------------------------|
-10-10-10-10-10--10-10-10--0-----10-10-10-10-10--10-10-10--0---------------------------|
-8--8--8--8--8---7--7--7---0-----8--8--8--8--8---7--7--7---0---------------------------|
-8--8--8--8--8---7--7--7---0-----8--8--8--8--8---7--7--7---0---------------------------|    

Added On December 16th, 2013

SHARE

Comments

blog comments powered by Disqus

ADVERTISEMENT