Mymp Tabs

Last Chance

1 versions

TAB

            Last Chance - MYMP
New Horizon

Tabs by: AJ Albaniel

~~~~~~~~~~~~~~~~~~~~~~~~~~~~~~~~~~~~~~~~~~~~~~~~~~~~~~~~~~~~~~~~~~~~~~~~
~ hello 2 ol! hehe, this is my 2nd time making a tab.. UG really rokz! ~
~ nde ko ganun kakuha pero.. hop u lyk it! and comments pls! it'l help ~
~~~~~~~~~~~~~~~~~~~~~~~~~~~~~~~~~~~~~~~~~~~~~~~~~~~~~~~~~~~~~~~~~~~~~~~~


NOTE: CAPO ON 1st FRET

=============================================
  listen to the song, then follow.. =)
=============================================

========
 INTRO:
========
         G           Em          Am           D
f  |------------|-----------|----0------|--------2----|
C  |--3----3----|--3----3---|--3---1----|------3---3--|
G# |---------0--|---------0-|--------0--|----2--------|
D# |-----0------|-----2-----|-----------|--0----------|
A# |----2-------|----2------|--0--------|-------------|
F  |--3---------|--0--------|-----------|-------------|

         G           Em          Am           D
f  |------------|-----------|----0------|-----2-------|
C  |--3----3----|-------3---|--3---1----|-----3-------|
G# |---------0--|---------0-|--------0--|-----2-------|
D# |-----0------|-----2-----|-----------|-----0-------|
A# |----2-------|----2------|--0--------|-------------|
F  |--3---------|--0--------|-----------|-------------|

=========
 PART 1:
=========

         G           Em          Am           D
f  |------------|-----------|----0------|------2---2--|
C  |--3----3----|--3----3---|--3---1----|----------3--|
G# |---------0--|---------0-|--------0--|----2-----2--|
D# |-----0------|-----2-----|-----------|--0-------0--|
A# |----2-------|----2------|--0--------|-------------|
F  |--3---------|--0--------|-----------|-------------|
     This is my last dance with you, This is my only chance

         Em           Am         C            Am
f  |-----0------|-----0-----|-----0-----|-----0-----|
C  |------0-----|-------1---|-------1---|-------1---|
G# |-------0----|---2----2--|---0----0--|---2----2--|
D# |---2--------|--2--------|--2--------|--2--------|
A# |--2---------|-0---------|-3---------|-0---------|
F  |-0----------|-----------|-----------|-----------|
to do, all I can do, To let you know that what I feel for you is

         C           D
f  |-----0-----|-----2-----|
C  |-------1---|-----3-----|
G# |---0----0--|-----2-----|
D# |--2--------|-----0-----|
A# |-3---------|-----------|
F  |-----------|-----------|
      real,        real...

=========
 PART 2:
=========

         G           Em          Am           D
f  |------------|-----------|----0------|------2---2--|
C  |--3----3----|--3----3---|--3---1----|----------3--|
G# |---------0--|---------0-|--------0--|----2-----2--|
D# |-----0------|-----2-----|-----------|--0-------0--|
A# |----2-------|----2------|--0--------|-------------|
F  |--3---------|--0--------|-----------|-------------|
This is the last chance for us, This is the moment that

         Em           Am         C            Am
f  |-----0------|-----0-----|-----0-----|-----0-----|
C  |------0-----|-------1---|-------1---|-------1---|
G# |-------0----|---2----2--|---0----0--|---2----2--|
D# |---2--------|--2--------|--2--------|--2--------|
A# |--2---------|-0---------|-3---------|-0---------|
F  |-0----------|-----------|-----------|-----------|
I just cant end, Before I know that theres a chance were more than

         Em           Am         Em          Am
f  |-----0------|-----0-----|-----0-----|-----0-----|
C  |------0-----|-------1---|-------0---|-------1---|
G# |-------0----|---2----2--|--------0--|---2----2--|
D# |---2--------|--2--------|---2-------|--2--------|
A# |--2---------|-0---------|--2--------|-0---------|
F  |-0----------|-----------|-0---------|-----------|
friends, So don’t let go, don’t let go, Make it last all night

         C           Am
f  |-----0------|-----0-----|
C  |-------1----|-------1---|
G# |---0----0---|---2----2--|
D# |--2---------|--2--------|
A# |-3----------|-0---------|
F  |------------|-----------|
This is my last chance to make you

===================
 GUITAR SOLO PART:   (hehe, di ko alam tawag d2 e..)
===================

         G           Em          Am           D
f  |------------|-----------|----0------|-----2-------|
C  |--3----3----|-------3---|--3---1----|-----3-------|
G# |---------0--|---------0-|--------0--|-----2-------|
D# |-----0------|-----2-----|-----------|-----0-------|
A# |----2-------|----2------|--0--------|-------------|
F  |--3---------|--0--------|-----------|-------------|
    mine...

-----------------------------------------------------

=========
 PART 3:  (same tabs in Part 1)
=========

I kept my feelings so deep
I kept my dreams of you and me somewhere inside
Although I prayed that you would see it in my eyes

=========
 PART 4:  (same tabs in Part 2)
=========

But this is my last chance to say
Whats in my heart before you stay out of my life
And then youll understand the way I feel inside

So hold me close cause it feels so right
This is my last chance to make you 

-----------------------------------------------------

 ~~~~~~~~~~~~~~~~~~~~~~~~~~~~~~~~~~~~~~~~~~
 ~ strumming part.. diskarte nalang po =) ~
 ~~~~~~~~~~~~~~~~~~~~~~~~~~~~~~~~~~~~~~~~~~

 G       Em
mine.. Make this dream reality

Am                       C
So close and yet so far, Gotta find a way into your heart

Em                  Am
Gotta speak my mind Gotta open up to you this time

C                          Am
I cant let you slip away tonight


============
 LAST PART:
============
         G           Em          Am           D
f  |------------|-----------|----0------|------2---2--|
C  |--3----3----|--3----3---|--3---1----|----------3--|
G# |---------0--|---------0-|--------0--|----2-----2--|
D# |-----0------|-----2-----|-----------|--0-------0--|
A# |----2-------|----2------|--0--------|-------------|
F  |--3---------|--0--------|-----------|-------------|
     This is my last dance with you, This is my only chance 

         Em           Am         C            Am
f  |-----0------|-----0-----|-----0-----|-----0-----|
C  |------0-----|-------1---|-------1---|-------1---|
G# |-------0----|---2----2--|---0----0--|---2----2--|
D# |---2--------|--2--------|--2--------|--2--------|
A# |--2---------|-0---------|-3---------|-0---------|
F  |-0----------|-----------|-----------|-----------|
 to do all I can do, To let you know that what I feel for you is so 

         Em           Am         Em          Am
f  |-----0------|-----0-----|-----0-----|-----0-----|
C  |------0-----|-------1---|-------0---|-------1---|
G# |-------0----|---2----2--|--------0--|---2----2--|
D# |---2--------|--2--------|---2-------|--2--------|
A# |--2---------|-0---------|--2--------|-0---------|
F  |-0----------|-----------|-0---------|-----------|
   real So don’t let go, Just make it last all night long..

         C           Am
f  |-----0------|-----0-----|
C  |-------1----|-------1---|
G# |---0----0---|---2----2--|
D# |--2---------|--2--------|
A# |-3----------|-0---------|
F  |------------|-----------|
 This is my last chance to make you 

========
 OUTRO:
========

         G           Em          Am           D
f  |------------|-----------|----0------|--------2----|
C  |--3----3----|--3----3---|--3---1----|------3---3--|
G# |---------0--|---------0-|--------0--|----2--------|
D# |-----0------|-----2-----|-----------|--0----------|
A# |----2-------|----2------|--0--------|-------------|
F  |--3---------|--0--------|-----------|-------------|
      mine...

         G           Em          Am           D              G
f  |------------|-----------|----0------|--------2----|------2------|
C  |--3----3----|-------3---|--3---1----|----------3--|------2------|
G# |---------0--|---------0-|--------0--|------3------|------0------|
D# |-----0------|-----2-----|-----------|----2--------|------0------|
A# |----2-------|----2------|--0--------|--0----------|------2------|
F  |--3---------|--0--------|-----------|-------------|------3------|
                                          yeah, yeah.. make you mine... 

                       [End]

~~~~~~~~~~~~~~~~~~~~~~~~~~~~~~~~~~~~~~~~~~~~~~~~~~~~~~~~~~~~~~~~~
~ well, that's the whole song.. sorry kung hnde ko perfect      ~
~ it tooked me an hour to do this.. hehe,                       ~
~ kaya nman, comments pls.. it would really help skn.. THANKS!! ~
~~~~~~~~~~~~~~~~~~~~~~~~~~~~~~~~~~~~~~~~~~~~~~~~~~~~~~~~~~~~~~~~~

HELLO SA MGA TAGA PERPZ!!!! PASUKAN NANAMAN!! YAHOOOO!!
add me sa friendster ajalbaniel@yahoo.com

- AJ =)    

Added On December 16th, 2013

SHARE

Comments

blog comments powered by Disqus

ADVERTISEMENT