Nausea Tabs

Sacrifice

1 versions

TAB

            -----------------------------------------------------|
-----------------------------------------------------|
-----------------------------------------------------|
-----5-7-8--8-7-5-----13-12-10---7-10----------------|
-5---3-5-6--6-5-3-5---11-10-8----5-8--5--------------|
-3----------------3-------------------3--------------|

---------------------------------------------------|
---------------------------------------------------|
---------------------------------------------------|
-------6-5-6-5----------6-5------------------------|
-5-8-5-4-3-4-3-8--5-8-5-4-3------------------------|
-3-6-3---------6--3-6-3----------------------------|
you can match the strumming by listening to the song

----------------------------------------------|
----------------------------------------------|
----------------------------------------------|
----8-----10----------------------------------|
-5--6--5--8-----------------------------------|
-3-----3--------------------------------------|

this is the ska/reggae part

-3---3---1---1---3---3---3---1------|
-3---3---1---1---3---3---4---1------|
-3---3---2---2---3---3---3---2------|
-5---5---3---3---5---5---3---3------|
-5---5---3---3---5---5---3---3------|
-3---3---1---1---3---3---3---1------|    

Added On December 16th, 2013

SHARE

Comments

blog comments powered by Disqus

ADVERTISEMENT