Nevermore Tabs

Insignificant

3 versions

TAB

            Insignificant Tab by Nevermore


Here's the complete tab for Insignificant. Sorry about my "bad choices" of
Nevermore tabs....But no one else has any Nevermore tabbed besides Jeff Loomis
himself who tabbed a few songs. So if you want other "heavier" songs by the
band tabbed....Tab them yourself....I'd be glad to see them too :)

I know this is not perfect....If any one finds mistakes....Please inform me
of them and the correct changes to be made. Thank you.


Nevermore : "Insignificant"


Part A (Play twice, then B)
|------0---0---------------0---------------------0----------0--------|
|--------4---4-5-----5-------4-5--------2------2---2---2--2---2------|
|----------6-------6---6---6----------3---5----------5---5------0----|
|-----------------------------------------------------------------0--|
|----4-------------------4------------------/3-----------------------|
|--0-------------0---------------0-/5--------------------------------|

|------0---0---------------0-------------------0-----------0---------|
|--------4---4-5-----5-------4-5-------4-----2---2---2---2---2-------|
|----------6-------6---6---6---------5---7\5-------5---5-------0-----|
|----------------------------------------------------------------0---|
|----4-------------------4---------6---------------------------------|
|--0-------------0---------------0-----------------------------------|

Part B (Play once)
|--9-----9-7-5-----5-----------------------5-------------------------|
|--7---7-------5-----5-------5---6-------6---6--5------5-5-5---------|
|--0-0---------6-------6---6-----7-----7--------4----4---4---4-------|
|--------------7---------7-------7---7----------6--6-----6-----------|
|--------------------------------------------------------------------|
|--------------------------------------------------------------------|

|--------------------------------------------------------------------|
|--4------4------4---44-3--1------2------2---------------------------|
|--3----3---3----3---33-4--2----1---1----1---------------------------|
|--5--5-------5--5---55-5--3--3-------3--0---------------------------|
|--------------------------------------------------------------------|
|--------------------------------------------------------------------|

Part C
|--------------------------------------------------------------------|
|--------------------------------------------------------------------|
|--6-------------------6---------------------------------------------|
|--6-------6--9-7------6-------6--9-7\-slide-------------------------|
|--4---444-4--9-7--555-4---444-4--9-7\--down-------------------------|
|--4---444-4--7-5--555-4---444-4--7-5\-------------------------------|
       ...         ...     ...

Repeat part A twice again, then instead of B, play this once :
|------0---0---------------0---------------------0-------------------|
|--------4---4-5-----5-------4-5--------2------2---------------------|
|----------6-------6---6---6----------3---5--------5-----------------|
|--------------------------------------------------------------------|
|----4-------------------4------------------/3-----------------------|
|--0-------------0---------------0-/5--------------------------------|

Chorus
|--------------------------------------------------------------------|
|--------------------------------------------------------------------|
|--6--666-9-9-999--4-444-7-7-777\6-----------------------------------|
|--6--666-9-9-999--4-444-7-7-777\6-----------------------------------|
|--4--444-7-7-777--2-222-5-5-555\4--2-Last---------------------------|
|--4--444-7-7-777--2-222-5-5-555\4--0-time---------------------------|

Play A once with this solo : (har=harmonic)                                                                   |
|--------------------------------------------------------------------|
|--------------------------------------------------------------------|
|--------------------------------------------------------------------| 
|--------------------------------------------------------------------| 
|------------------------3h6p4(har,bend,+vib)--/6har~-/4har~-/3har~--|
|--4h7p5~~-/9har~-/8har~---------------------------------------------|

|--------------------------------------------------------------------|
|--------------------------------------------------------------------|
|--------------------------------------------------------------------|
|--------------------------------------------------------------------|
|--0h3(har+pulloff quickly)------------------------------------------|
|--------------------------------------------------------------------|

Play A once more & B again

Play Chorus

Play part C, then this solo :
|----(bend-off-fretboard)--------------------------------------------|
|--12b-12b12b12b~~--------9-10-12-10-9b-9b+r----9--------------------|
|-----------------------10-------------------12---12~~\slide-down----| 
|---------------------11---------------------------------------------| 
|--------------------------------------------------------------------|
|--------------------------------------------------------------------|

|--------------------------------------------------------------------|
|--------------------------------------------------------------------|
|--8-9-11-8h9p8----8-------------------------------------------------| 
|---------------11--11-9-8h9p8h9p8----8------10-9~~------------------| 
|----------------------------------11---11-9-------------------------|
|--------------------------------------------------------------------|

|--------------------------------------------------------------------|
|--------------------------------------------------------------------|
|--------------------------------------------------------------------| 
|--------------------------------------------------------------------| 
|--/12-10-10h11-9-7-9-7-6-7-5-3-5-4-2-2/4-4har~~---------------------|
|--------------------------------------------------------------------|

Play A once more

Repeat Chorus

Part C    

Added On December 5th, 2013

SHARE

Comments

blog comments powered by Disqus

VERSIONS

ADVERTISEMENT