Nevermore Tabs

Psalm Of Lydia

2 versions

TAB

            The psalm of Lydia
By: NEVERMORE

Tuning:|TUNED TO THE # sign on a chromatic tuner|
Eb|---------|
Bb|---------|
F#|---------|
C#|---------|
G#|---------|
C#|---------|
Bb|---------|

|Intro riff, Play 3 Times|
|--------------------------------------------------------------------------|
|--------------------------------------------------------------------------|
|--------------------------------------------------------------------------|
|--5-7--5-7-----5-7--8-7-5-7--3-5--3-5----7-8--11-12-----------------------|
|--3-5--3-5-----3-5--6-5-3-5--1-3--1-3----5-6--9--10-----------------------|
|-X----X----XXX-----X--------X----X----XXX----X----------------------------|

Play this part right before the intro solo
|--------------------------------------------------|
|--------------------------------------------------|
|--------------------------------------------------|
|--------------------------------------------------|
|--5-7--5-7-------5-7--8-7-5-7--3-5--3-5------5-7--|
|--3-5--3-5-------3-5--6-5-3-5--1-3--1-3------3-5--|
|-X----X----X-X-X-----X--------X----X----X-X-X-----|


|Sweeping solo:|

Play twice:(just this part)
|-11-7----------7-11-7---6-10-6---7-|
|-----9--------9------9-9------8-8--|
|------8------8--------8--------7---|
|-------9----9----------------------|
|--------11-6-----------------------|
|-----------------------------------|
|-----------------------------------|

|-10-6----------6-10--15-12-----------12-15-19-15-----------15-19----|
|-----8--------8------------12-------12---------15---------15--------|
|------6------6--------------12-----12-----------16-------16---------|
|-------9----9----------------12---12-------------17-----17----------|
|--------10-6------------------14-10---------------17---17-----------|
|---------------------------------------------------21-17------------|
|--------------------------------------------------------------------|

|-22-19-----19-22-24-22-19----18-21-18----21-18----21-23-21-18----18-|
|------20--20------------20--20------19--19---19--19---------19--19--|
|--------19----------------19----------18-------18-------------18----|
|--------------------------------------------------------------------|
|--------------------------------------------------------------------|
|--------------------------------------------------------------------|
|--------------------------------------------------------------------|

|-20-17----17-20-17----17-20-22-20-17----17-20-17---------17----------|
|-----18--18------18--18------------18--18------18-------18--18b~~~~~-|
|-------17----------17----------------17---------17-----17---19b~~~~~-|
|-------------------------------------------------19---19-------------|
|--------------------------------------------------20-15--------------|
|-----------------------------------------------------------X---------|
|---------------------------------------------------------------------|

|Main Part|

[Lick 1]
|------------------------------------------------|
|------------------------------------------------|
|------------------------------------------------|
|------------------------------------------------|
|-X-0-1-4-3-1-0-----X-0-1-4-3-1-0--2-4-6-8-7-9---|
|-X-0-1-4-3-1-0-----X-0-1-4-3-1-0--2-4-6-8-7-9---|
|------------------------------------------------|

[Lick 2]
|--------------------------------------------------|
|--------------------------------------------------|
|-----------------------------------3--------------|
|-X-0-1-4-3-1-0-XXXX--X-0-1-4-3-1-0--5-2-5-2-------|
|-X-0-1-4-3-1-0-XXXX--X-0-1-4-3-1-0-----3---3-2b~~-|
|--------------------------------------------------|

|------------------------------------------------|
|------------------------------------------------|
|------------------------------------------------|
|------------------------------------------------|
|-X-0-1-4-3-1-0-----X-0-1-4-3-1-0--2-4-6-8-7-9---|
|-X-0-1-4-3-1-0-----X-0-1-4-3-1-0--2-4-6-8-7-9---|
|------------------------------------------------|


(i'm not sure what part this is, but maybe you'll figure out where it goes)
|--------------------------------------------------|
|--------------------------------------------------|
|-----------------------------------3--------------|
|-X-0-1-4-3-1-0-XXXX--X-0-1-4-3-1-0--5-2-5-2-------|
|-X-0-1-4-3-1-0-XXXX--X-0-1-4-3-1-0-----3---3-2b~~-|
|--------------------------------------------------|

(i'm not sure what part this is, but maybe you'll figure out where it goes)

Play 2 times
|---------------------------------------|
|---------------------------------------|
|---------------------------------------|
|---------------------------------------|
|-1-4-3-1-0-1-0-434--1-4-3-1-0-1-0-XXXX-|
|-1-4-3-1-0-1-0-434--1-4-3-1-0-1-0-XXXX-|
|---------------------------------------|

|SOLOS|

|-----2-5h2---------5-8h5-----------8-11h8--------------11-14S15-----|
|----3-----3-------7-----7-------10--------10---------13-------------|
|-2h5--------2/5--8-------5/8--11-------------8/11--14---------------|
|--------------------------------------------------------------------|
|--------------------------------------------------------------------|
|--------------------------------------------------------------------|
|--------------------------------------------------------------------|

|-11-14s151411--11--------------------------------------|
|-------------15--151311-10/11131110---10---------------|
|------------------------------------12—12/11 (11)*-----|
|-------------------------------------------------------|
|-------------------------------------------------------|
|-------------------------------------------------------|
|-------------------------------------------------------|

|-t17h14p15-t17h14p15h14p11-t15h14p11-t15h14p15/10s------|
|--------------------------------------------------13----|
|--------------------------------------------------------|
|--------------------------------------------------------|
|--------------------------------------------------------|
|--------------------------------------------------------|
|--------------------------------------------------------|

|-------------------------------------------------------------------------|
|-t15h13-t15h13p15/10-t1311s10-t13h11p10h7-t11h8p10h8s7t13----------------|
|---------------------------------------------------------h7------10h9p12-|
|----------------------------------------------------------h10p8s7s-------|
|-------------------------------------------------------------------------|
|-------------------------------------------------------------------------|
|-------------------------------------------------------------------------|

|------------------------------------------------------------------------|
|--------t14-------------------------------------------------------------|
|-t14h12-----h12—10h8s7p11-t12h7p8h7-------------------------------------|
|------------------------------------t12h10p8-t12h10p8h7s5-7b—5s4*-------|
|------------------------------------------------------------------------|
|------------------------------------------------------------------------|
|------------------------------------------------------------------------|

|-22b—22b-22b-22b-22b--------|
|----------------------------|
|----------------------------|
|----------------------------|
|----------------------------|
|----------------------------|
|----------------------------|

|22b-22-20-19-20h22-202220h19-19202220191719201917161719161313-1617131617-|
|----------------------------22------------------------------17-----------|
|-------------------------------------------------------------------------|
|-------------------------------------------------------------------------|
|-------------------------------------------------------------------------|
|-------------------------------------------------------------------------|
|-------------------------------------------------------------------------|

|-191716131617161312161312--1312----12----------1213161312--1312---12------|
|-------------------------15----1513--1513121315----------15---1513-151312-|
|--------------------------------------------------------------------------|
|--------------------------------------------------------------------------|
|--------------------------------------------------------------------------|
|--------------------------------------------------------------------------|
|--------------------------------------------------------------------------|

|-------------------------------------------------------------------------|
|-----------1213151312----------------------------------------------------|
|-1412111214----------141211121411--11------------------------------------|
|---------------------------------14--14121012141210--10-----12-12s14-12b-|
|---------------------------------------------------14--12-11-------------|
|-------------------------------------------------------------------------|
|-------------------------------------------------------------------------|

|-----------------------------------------14----14-------14----------------|
|--------------------------------13----13----13----13b-----13----------13--|
|-----------------------11----11----11-----------------------11------11----|
|----------------10---10---10--------------------------------------10------|
|--3---3-9----9-----9--------------------------------------------9---------|
|----4-----10--------------------------------------------------------------|
|--------------------------------------------------------------------------|

|------------------------------------------------------------------------|
|-10b11b--81011-101113-1113151311-1311131110--10--------11131513-111315--|
|------------------------------------------12---12-1112------------------|
|------------------------------------------------------------------------|
|------------------------------------------------------------------------|
|------------------------------------------------------------------------|
|------------------------------------------------------------------------|

|-12----151412----121415-1415171514—141517b-17-18b—(18)(18)-18-18b----|
|----15-------1513-----------------17---------------------------------|
|---------------------------------------------------------------------|
|---------------------------------------------------------------------|
|---------------------------------------------------------------------|
|---------------------------------------------------------------------|
|---------------------------------------------------------------------|

|-------------------------------------------------------------|
|-------------------------------------------------------------|
|-----------------------------------------------------9-------|
|----------------------------------7--------7910-91012-1210---|
|---------------5----------578-7810--1087810------------------|
|-7910-7910-7910--1097-7910-----------------------------------|
|-------------------------------------------------------------|

|-----------------------------------------------------1213151312-----------|
|-----------10121312101210----------------101213121315----------151312-----|
|------91012--------------12109------91012----------------------------1412-|
|-91012------------------------121012--------------------------------------|
|--------------------------------------------------------------------------|
|--------------------------------------------------------------------------|
|--------------------------------------------------------------------------|

|-----------------------121315131517151719171920192022202224242424b24b24b22---|
|------------121315121315-----------------------------------------------------|
|---------1214----------------------------------------------------------------|
|1514121415----------------------------------------------------------------|--|
|-----------------------------------------------------------------------------|
|-----------------------------------------------------------------------------|    

Added On December 16th, 2013

SHARE

Comments

blog comments powered by Disqus

VERSIONS

ADVERTISEMENT