Nevermore Tabs

The River Dragon Has Come

6 versions

TAB

            The River Dragon Has Come Tab by Nevermore


Nevermore
"The Riverdragon Dance" from A Dead heart in a Dead world
7-string tuned down 1/2 step

Intro Clean sound
------------0--------------------------------------------------------|
---------0-----------------------------------------------------------|
------16----------16-------------------------------------------------|
---------------------------------------------------------------------|
---------------------------------------------------------------------|
-0-------------------------------------------------------------------|
---------------------------------------------------------------------|

Clean 1
-------------0---------------0----------0------------------0--------------0-|
--------0---------------0-----------------------------0---------------0-----|
(14h16-------------14--------------12---------12h14--------------12---------|
(---------------------------------------------------------------------------|
(---------------------------------------------------------------------------|
(---------------------------------------------------------------------------|
(---------------------------------------------------------------------------|


------------------------0------------------0--------------0--------------0---|
---------0-----------8------------------8--------------8--------------8------|
---11---------7h9------------------9--------------9--------------9-----------|
-----------------------------------------------------------------------------|
-----------------------------------------------------------------------------|
-----------------------------------------------------------------------------|
-----------------------------------------------------------------------------|

-------------------0--------------0------------------------0--------------0-|
-------0---------8--------------8--------------0---------8--------------8---|
--9---------7--------------7--------------7---------5--------------5--------|
----------------------------------------------------------------------------|
----------------------------------------------------------------------------|
----------------------------------------------------------------------------|
----------------------------------------------------------------------------|


------------(-----------------0----------------------------------------------|
-------0----(------------0---------------------------------------------------|
--7---------(----7/16--------------16----------------------------------------|
------------(----------------------------------------------------------------|
------------(----------------------------------------------------------------|
------------(----------------------------------------------------------------|
------------(----------------------------------------------------------------|
	                                        repeat clean1 then goto heavy1

Heavy 1                                                         end  x2
(---------------------------------)----------------------------------)
(---------------------------------)----------------------------------)
(---------------------------------)----------------------------------)
(---------------------------------)----------------------------------)
(---------------------------------)-----------------------------3----)
(-5-3-2-3-x-3-2-3-2-3-5-2-x-2-3-2-)-5-3-2-3-x-3-2-3-2-3-5-2-x-2-1----)
(-3-1-0-1-x-1-0-1-0-1-3-0-x-0-1-0-)-3-1-0-1-x-1-0-1-0-1-3-0-x-0------)

Verse1
Pm x   x   x                           x x  x  x x x        volume swell     x4
(---------------------------------------------------------------------------|
(---------------------------------------------------------------------------|
(---------------------------------------------------------------------------|
(--------------4-------------------------------------4----------5-----------|
(--2---2---2---2-----------------------2-2--2--2-2-2-2----------3-----------|
(--2---2---2---2-----------------------2-2--2--2-2-2-2----------3-----------|
(--0---0---0---0-----------------------0-0--0--0-0-0-0----------------------|


fill1 after 2 verses(just apply to the verse)
(---------------------------------------------------------------------------|
(---------------------------------------------------------------------------|
(---------------------------------------------------------------------------|
(----------------xx-10-xx-9-xx-7-xx-5~------------------xx-5-xx-4-xx-2------|
(-----------------------------------------------------------------xx-5~-----|
(---------------------------------------------------------------------------|
(---------------------------------------------------------------------------|

Bridge1
Pm    x  x           x  x           x  x
(------------------------------------------------------------)
(------------------------------------------------------------)
(------------------------------------------------------------)
(------------------------------------------------------------)
(------------------------------------------------------------)
(-4---4--4--5\4--4---4--4--5\4--4---4--4--5\4--------2-------)
(-2---2--2--3\2--2---2--2--3\2--2---2--2--3\2--2-3-5---5-3---)

Pm    x  x           x  x                      repeat bridge x1
(------------------------------------------------------------)
(------------------------------------------------------------)
(------------------------------------------------------------)
(------------------------------------------------------------)
(------------------------------------------------------------)
(-4---4--4--5\4--4---4--4--5\4--4--3----------7---3---7------)
(-2---2--2--3\2--2---2--2--3\2--2--1----------5---1---5------)


Heavy 1                                                         end
(---------------------------------)----------------------------------)
(---------------------------------)----------------------------------)
(---------------------------------)----------------------------------)
(---------------------------------)----------------------------------)
(---------------------------------)-----------------------------3----)
(-5-3-2-3-x-3-2-3-2-3-5-2-x-2-3-2-)-5-3-2-3-x-3-2-3-2-3-5-2-x-2-1----)
(-3-1-0-1-x-1-0-1-0-1-3-0-x-0-1-0-)-3-1-0-1-x-1-0-1-0-1-3-0-x-0------)


Verse2
(----------------------------------------------------------------------------|
-----------------------play first part------------------------play heavy1----|
(----------------------------of heavy1-------------------------------part1---|
(--5---5---5---7---7---7----------------------5---5---5---4---4---4----------|
(--5---5---5---7---7---7----------------------5---5---5---4---4---4----------|
(--3---3---3---5---5---5----------------------3---3---3---2---2---2----------|
(----------------------------------------------------------------------------|


Play Verse1 pattern but with this harmonyfill with slight wah
Fill2
(--------------------------------------)-------------------------------------|
(-----------3---------3---3-5-3---3----)----------3--------------------------|
(---2-5-4-5---5-4-5-4---5-------5---4~-)--2-5-4-5---5-4-5-1-4-2-4-5-4-2-4-1~-|
(--------------------------------------)-------------------------------------|
(--------------------------------------)-------------------------------------|
(--------------------------------------)-------------------------------------|
(--------------------------------------)-------------------------------------|
(
(
(--------------------------------------)------------------------------------|
(--------------------------------------)------------------------------------|
(--------------------------------------)------------------------------------|
(--------------------------------------)------------------------------------|
(-----------5---------5---5-7-5---5----)----------5-------------------------|
(---5-8-7-8---8-7-8-7---8-------8---7~-)--5-8-7-8---8-7-8-4-7-5-7-8-7-5-7-4-|
(--------------------------------------)------------------------------------|


Play verse1 with fill1

Play bridge

Play heavy1

Play verse2


Rhythm Guitar Solo
Tapping part
(--------------------------------------)
(--------------------------------------)
(--------------------------------------)
(---2--------------2--------3----------)   x2
(---2--------------2--------3---3---5--)
(---0--------------0--------1---3---5--)
(-------------------------------1---3--)

harmony part
pm x x x x x x x x x                    x x x x x x x x x
(-------------------------------------------------------------------------)
(-------------------------------------------------------------------------)
(-------------------------------------------------------------------------)
(-------------------------------------------------------------------------)
(-------------------------------------------------------------------------)
(--4-4-4-4-4-4-4-4-4--------------------4-4-4-4-4-4-4-4-4-----------------)
(--2-2-2-2-2-2-2-2-2--------------------2-2-2-2-2-2-2-2-2-----------------)

   x x x x x x x x x                    x x x x x x x x x
(-----------------------------------------------------------------------------|
(-----------------------------------------------------------------------------|
(---------------------------------------------------------repeat harmonypart--| 1x
(-----------------------------------------------------------------------------|
(-----------------------------------------------------------------------------|
(--3-3-3-3-3-3-3-3-3--------------------3-3-3-3-3-3-3-3-3---------------------|
(--1-1-1-1-1-1-1-1-1--------------------1-1-1-1-1-1-1-1-1---------------------|

Third part solo
pm x x x x x x x x                     x x x x x x x x
(-------------------------------------------------------------------------)
(-------------------------------------------------------------------------)
(-------------------------------------------------------------------------)
(-------------------------------------------------------------------------)
(-------------------------------------------------------------------------)
(--2-2-2-2-2-2-2-2-2~-------------------2-2-2-2-2-2-2-2-2~----------------)
(--0-0-0-0-0-0-0-0-0~-------------------0-0-0-0-0-0-0-0-0~----------------)


Lead guitar Solo

Tapping Part
    T    T           T    T          T    T          T   T         T   T
(-12-7-12-7-0-7--)-13-7-13-7-0-7-)-15-7-15-7-0-7-)-17-7-17-7-0-7-15-7-15-7-0-|
(-----------------)---------------)---------------)--------------------------|
(---------repeat--)--------repeat-)---------------)--------------------------|
(-----------x8----)----------x4---)----repeat-----)--------------------------|
(-----------------)---------------)------x4-------)--------------------------|
(-----------------)---------------)---------------)--------------------------|
(-----------------)---------------)---------------)--------------------------|
repeat all 4 patterns ending with a slide from fret 2 to 15 on the high e-string


Harmony Part

(18-15-------------------------------------------------------------18/21-18--|
(------17-------17-16-15----------------------------17-------17-20-----------|
(---------18-15----------18-17-18-15----------15-18----15-18-----------------|
(-----------------------------------17-14-17---------------------------------|
(----------------------------------------------------------------------------|
(----------------------------------------------------------------------------|
(----------------------------------------------------------------------------|

(--------------------------------------------------------------15-18\15------|
(20-17-------17-16-15---------------------------17-------17-20-23\20-17------|
(------18-15----------18-17-18-15---------15-18----15-18----------------18---|
(--------------------------------17-14-17------------------------------------|
(----------------------------------------------------------------------------|
(----------------------------------------------------------------------------|
(----------------------------------------------------------------------------|

(--------------------------------------------)
(--------------------------------------------)
(-15----18-17-16-15----15--------------------)
(----17-------------19----17----------17-20--)     Then just transscend this part
(----------------------------19-16-19--------)     down half a step starting at 17
(--------------------------------------------)
(--------------------------------------------)


Main solo part

(----17b19-19----19-20-19-17h19p17p15h17b19-17b19------14-15-14-17-17-15b17--|
(----------------------------------------------------------------------------|
(----------------------------------------------------------------------------|
(----------------------------------------------------------------------------|
(----------------------------------------------------------------------------|
(----------------------------------------------------------------------------|
(----------------------------------------------------------------------------|


                            fast run-------------------------/a.h

(--15-14-15----12-14-15----15-14-12-----------------------------------------)
(-------------x---------------------15-13-12--------------------------------)
(------------x-------------------------------14-12-11-----------------------)
(-----------------------------------------------------14-12-10-9b10r9-------)
(---------------------------------------------------------------------------)
(---------------------------------------------------------------------------)
(---------------------------------------------------------------------------)

                                   a.h
(-------------------------------------------------------------------------)
(-------------------------------------------------------------------------)
(-------------------------------------------------------------------------)
(---9h109----9------------------------------------------------------------)
(---------12---12-10-9-10-9----9------------------------------------------)
(---------------------------12---12-9~------------------------------------)
(-------------------------------------------------------------------------)

Then play:
Bridge
verse 2...

The End...    

Added On December 5th, 2013

SHARE

Comments

blog comments powered by Disqus