New Found Glory Tabs

Still The One

1 versions

TAB

            Song: Still the one
Artist: New Found Glory
Tunning: Standard
Tabbed by: Nikko Gonzales
mabuhay mga pilipino
Guitar I:Lead
Guitar II:Rhythm

0-open string/strum
/-slide

Intro

Guitar I
e|-------------------------------------|
b|-------------------------------------|
g|--------7/9----------7/9-------------|
d|---5------------5--------------------|
a|-------------------------------------|
E|-------------------------------------|

Guitar II
e|-------------------------------------|
b|-------------------------------------|
g|---7xxx----------0-3xxx--------------|do it as neeeded then 
d|---7xxx--0--5xx--0-3xxx--0--7xxx-----|do it with guitar 1 
a|---5xxx--0--5xx--0-5xxx--0--7xxx-----|
E|---------0--3xx----------0--5xxx-----|

Pre-Chorus
both guitars
e|-------------------------------------|
b|-------------------------------------|
g|------7-------9----------------------|
d|--5---7---7---9---7------------------|
a|--5---5---7---7---7------------------|
E|--3-------5-------5------------------|

not still sure of it    

Added On December 16th, 2013

SHARE

Comments

blog comments powered by Disqus

ADVERTISEMENT