Noah And The Whale Tabs

Give A Little Love

2 versions

TAB

            Noah and the Whale - Give a little Love
Standard tuning.

Capo on 1st fret

Chords can be played a few differnt ways.
(fret numbers from capo position. e.g 1 = 2nd fret etc)

Simple 'strumming' way:
C# -0       Fm-0      D#-2    G#-3     G#/G-3
   -1         -0        -3      -3         -3
   -0         -0        -2      -0         -0
   -2         -2        -0      -0         -0
   -3         -2        -0      -2         -0
   -0         -0        -x      -3         -2

The other way (and how they are played on the track) is by playing these on the bottom 3 
(low strings) instead of strumming the chord :
(play them for longer/shorter depending on how the long the chord is played)

C#  -------2-- -----2-------2--------2-|
    --3--------3--------3-------3------|
    --3--------3--------3-------3------|

Fm  ------5-- -------5---------5--------5-|
    -2---------2---------2---------2------|
    -0---------0---------0---------0------|

D#  ------4-- -------4---------4--------4-|
    -5---------5---------5---------5------|
    -5---------5---------5---------5------|

G# ------0-- -------0---------0--------0-|
   -2---------2---------2---------2------|
   -3---------3---------3---------3------|

G# ------0-- -------0---------0--------0-|
   -0---------0---------0---------0------|
    2---------2---------2---------2------|

Heres the structure:

Intro:
C#
C#
e |-x-|---|---|---|---|
B |---|-x-|---|---|---|
G |-x-|---|---|---|---|
D |---|---|-x-|---|---|
A |---|---|---|-x-|---|
E |---|---|---|---|---|
, Fm
Fm
e |-x-|---|---|---|---|
B |-x-|---|---|---|---|
G |-x-|---|---|---|---|
D |---|---|-x-|---|---|
A |---|---|-x-|---|---|
E |-x-|---|---|---|---|
, D#
D#
e |-x-|---|---|---|---|
B |---|-x-|---|---|---|
G |-x-|---|---|---|---|
D |---|---|-x-|---|---|
A |---|---|---|-x-|---|
E |---|---|---|---|---|
, G#
G#
e |---|---|---|-x-|---|
B |-x-|---|---|---|---|
G |-x-|---|---|---|---|
D |-x-|---|---|---|---|
A |---|---|---|---|---|
E |---|---|---|---|---|
, C#
C#
e |-x-|---|---|---|---|
B |---|-x-|---|---|---|
G |-x-|---|---|---|---|
D |---|---|-x-|---|---|
A |---|---|---|-x-|---|
E |---|---|---|---|---|
x2 1 2 3 4 Verse1: C#
C#
e |-x-|---|---|---|---|
B |---|-x-|---|---|---|
G |-x-|---|---|---|---|
D |---|---|-x-|---|---|
A |---|---|---|-x-|---|
E |---|---|---|---|---|
G#
G#
e |---|---|---|-x-|---|
B |-x-|---|---|---|---|
G |-x-|---|---|---|---|
D |-x-|---|---|---|---|
A |---|---|---|---|---|
E |---|---|---|---|---|
Well I know my death will not come C#
C#
e |-x-|---|---|---|---|
B |---|-x-|---|---|---|
G |-x-|---|---|---|---|
D |---|---|-x-|---|---|
A |---|---|---|-x-|---|
E |---|---|---|---|---|
G#
G#
e |---|---|---|-x-|---|
B |-x-|---|---|---|---|
G |-x-|---|---|---|---|
D |-x-|---|---|---|---|
A |---|---|---|---|---|
E |---|---|---|---|---|
'Til I breathe all the air out my lungs C#
C#
e |-x-|---|---|---|---|
B |---|-x-|---|---|---|
G |-x-|---|---|---|---|
D |---|---|-x-|---|---|
A |---|---|---|-x-|---|
E |---|---|---|---|---|
G#
G#
e |---|---|---|-x-|---|
B |-x-|---|---|---|---|
G |-x-|---|---|---|---|
D |-x-|---|---|---|---|
A |---|---|---|---|---|
E |---|---|---|---|---|
'Til my final tune is sung G#
G#
e |---|---|---|-x-|---|
B |-x-|---|---|---|---|
G |-x-|---|---|---|---|
D |-x-|---|---|---|---|
A |---|---|---|---|---|
E |---|---|---|---|---|
G#
G#
e |---|---|---|-x-|---|
B |-x-|---|---|---|---|
G |-x-|---|---|---|---|
D |-x-|---|---|---|---|
A |---|---|---|---|---|
E |---|---|---|---|---|
/G
G
e |---|---|-x-|---|---|
B |---|---|---|---|---|
G |---|---|---|---|---|
D |---|---|---|---|---|
A |---|-x-|---|---|---|
E |---|---|-x-|---|---|
Fm
Fm
e |-x-|---|---|---|---|
B |-x-|---|---|---|---|
G |-x-|---|---|---|---|
D |---|---|-x-|---|---|
A |---|---|-x-|---|---|
E |-x-|---|---|---|---|
That all is fleeting D#
D#
e |-x-|---|---|---|---|
B |---|-x-|---|---|---|
G |-x-|---|---|---|---|
D |---|---|-x-|---|---|
A |---|---|---|-x-|---|
E |---|---|---|---|---|
G#
G#
e |---|---|---|-x-|---|
B |-x-|---|---|---|---|
G |-x-|---|---|---|---|
D |-x-|---|---|---|---|
A |---|---|---|---|---|
E |---|---|---|---|---|
Yeah, but all is good G#
G#
e |---|---|---|-x-|---|
B |-x-|---|---|---|---|
G |-x-|---|---|---|---|
D |-x-|---|---|---|---|
A |---|---|---|---|---|
E |---|---|---|---|---|
G#
G#
e |---|---|---|-x-|---|
B |-x-|---|---|---|---|
G |-x-|---|---|---|---|
D |-x-|---|---|---|---|
A |---|---|---|---|---|
E |---|---|---|---|---|
/G
G
e |---|---|-x-|---|---|
B |---|---|---|---|---|
G |---|---|---|---|---|
D |---|---|---|---|---|
A |---|-x-|---|---|---|
E |---|---|-x-|---|---|
Fm
Fm
e |-x-|---|---|---|---|
B |-x-|---|---|---|---|
G |-x-|---|---|---|---|
D |---|---|-x-|---|---|
A |---|---|-x-|---|---|
E |-x-|---|---|---|---|
And my love is my whole being D#
D#
e |-x-|---|---|---|---|
B |---|-x-|---|---|---|
G |-x-|---|---|---|---|
D |---|---|-x-|---|---|
A |---|---|---|-x-|---|
E |---|---|---|---|---|
G#
G#
e |---|---|---|-x-|---|
B |-x-|---|---|---|---|
G |-x-|---|---|---|---|
D |-x-|---|---|---|---|
A |---|---|---|---|---|
E |---|---|---|---|---|
And I've shared what I could Chorus: C#
C#
e |-x-|---|---|---|---|
B |---|-x-|---|---|---|
G |-x-|---|---|---|---|
D |---|---|-x-|---|---|
A |---|---|---|-x-|---|
E |---|---|---|---|---|
Fm
Fm
e |-x-|---|---|---|---|
B |-x-|---|---|---|---|
G |-x-|---|---|---|---|
D |---|---|-x-|---|---|
A |---|---|-x-|---|---|
E |-x-|---|---|---|---|
D#
D#
e |-x-|---|---|---|---|
B |---|-x-|---|---|---|
G |-x-|---|---|---|---|
D |---|---|-x-|---|---|
A |---|---|---|-x-|---|
E |---|---|---|---|---|
G#
G#
e |---|---|---|-x-|---|
B |-x-|---|---|---|---|
G |-x-|---|---|---|---|
D |-x-|---|---|---|---|
A |---|---|---|---|---|
E |---|---|---|---|---|
But if you give a little love, you can get a little love of your own C#
C#
e |-x-|---|---|---|---|
B |---|-x-|---|---|---|
G |-x-|---|---|---|---|
D |---|---|-x-|---|---|
A |---|---|---|-x-|---|
E |---|---|---|---|---|
Don't break his heart C#
C#
e |-x-|---|---|---|---|
B |---|-x-|---|---|---|
G |-x-|---|---|---|---|
D |---|---|-x-|---|---|
A |---|---|---|-x-|---|
E |---|---|---|---|---|
Fm
Fm
e |-x-|---|---|---|---|
B |-x-|---|---|---|---|
G |-x-|---|---|---|---|
D |---|---|-x-|---|---|
A |---|---|-x-|---|---|
E |-x-|---|---|---|---|
D#
D#
e |-x-|---|---|---|---|
B |---|-x-|---|---|---|
G |-x-|---|---|---|---|
D |---|---|-x-|---|---|
A |---|---|---|-x-|---|
E |---|---|---|---|---|
G#
G#
e |---|---|---|-x-|---|
B |-x-|---|---|---|---|
G |-x-|---|---|---|---|
D |-x-|---|---|---|---|
A |---|---|---|---|---|
E |---|---|---|---|---|
Yeah if you give a little love, you can get a little love of your own C# C# again for 1 bar. Don't break his heart Bridge: Fm
Fm
e |-x-|---|---|---|---|
B |-x-|---|---|---|---|
G |-x-|---|---|---|---|
D |---|---|-x-|---|---|
A |---|---|-x-|---|---|
E |-x-|---|---|---|---|
, C#
C#
e |-x-|---|---|---|---|
B |---|-x-|---|---|---|
G |-x-|---|---|---|---|
D |---|---|-x-|---|---|
A |---|---|---|-x-|---|
E |---|---|---|---|---|
, G#
G#
e |---|---|---|-x-|---|
B |-x-|---|---|---|---|
G |-x-|---|---|---|---|
D |-x-|---|---|---|---|
A |---|---|---|---|---|
E |---|---|---|---|---|
, D#
D#
e |-x-|---|---|---|---|
B |---|-x-|---|---|---|
G |-x-|---|---|---|---|
D |---|---|-x-|---|---|
A |---|---|---|-x-|---|
E |---|---|---|---|---|
x2 Verse2 (same as verse1): Well my heart is bigger than the earth And though life is what gave it love first Life is not all that it's worth 'Cause life is fleeting Yeah, but I love you And my love surrounds you like an ether In everything that you do Chorus (same as first chorus) x 2 Bridge: From here to the end of the song its the same chord progression as the first Bridge. Fm
Fm
e |-x-|---|---|---|---|
B |-x-|---|---|---|---|
G |-x-|---|---|---|---|
D |---|---|-x-|---|---|
A |---|---|-x-|---|---|
E |-x-|---|---|---|---|
, Well if you are (what you love) C#
C#
e |-x-|---|---|---|---|
B |---|-x-|---|---|---|
G |-x-|---|---|---|---|
D |---|---|-x-|---|---|
A |---|---|---|-x-|---|
E |---|---|---|---|---|
, And you do (what you love) G#
G#
e |---|---|---|-x-|---|
B |-x-|---|---|---|---|
G |-x-|---|---|---|---|
D |-x-|---|---|---|---|
A |---|---|---|---|---|
E |---|---|---|---|---|
, D#
D#
e |-x-|---|---|---|---|
B |---|-x-|---|---|---|
G |-x-|---|---|---|---|
D |---|---|-x-|---|---|
A |---|---|---|-x-|---|
E |---|---|---|---|---|
I will always be the sun and moon to you And if you share (with your heart) Yeah, you give (with your heart) What you share with the world is what it keeps of you Fm
Fm
e |-x-|---|---|---|---|
B |-x-|---|---|---|---|
G |-x-|---|---|---|---|
D |---|---|-x-|---|---|
A |---|---|-x-|---|---|
E |-x-|---|---|---|---|
, C#
C#
e |-x-|---|---|---|---|
B |---|-x-|---|---|---|
G |-x-|---|---|---|---|
D |---|---|-x-|---|---|
A |---|---|---|-x-|---|
E |---|---|---|---|---|
, C#
C#
e |-x-|---|---|---|---|
B |---|-x-|---|---|---|
G |-x-|---|---|---|---|
D |---|---|-x-|---|---|
A |---|---|---|-x-|---|
E |---|---|---|---|---|
, D#
D#
e |-x-|---|---|---|---|
B |---|-x-|---|---|---|
G |-x-|---|---|---|---|
D |---|---|-x-|---|---|
A |---|---|---|-x-|---|
E |---|---|---|---|---|
' till the end...

Added On December 16th, 2013

SHARE

Comments

blog comments powered by Disqus

VERSIONS

ADVERTISEMENT