Noah Gundersen Tabs

The First Song

1 versions

TAB

            Intro
   
E||---------------------------------------------------------------------|
B||------------------------------------3--------------------------------|
G||-------------0-----------2h4-------------------------------0---------|
D||--0h2-------------0---------------------0-------0h2-------------0----|
A||---------------------------------------------------------------------|
E||--3---------------------------------------------3--------------------|


----------------------------------------------------------||
-----------------------------------------------------3----||
--2h4--------2----0----------------------0----------------||
-------------------------0h2--------------------2---------||
-------------------------3--------------------------------||
----------------------------------------------------------||

     G                                             Cadd9
When everything crumbles, I'll be the last one to go

G                                     Cadd9
Pack my belongings, leaving my family and home

G                   D/F#               Em7                 Cadd9
Take, take what you need, not what you want, but all in between

G                   D/F#            Em7                Cadd9     Am
Live, live like the sea, you can be you, and i will be me

            C    Am             C
For all this time, but still my mind is on..


(repeat)


Bridge: end verb and chorus with a C( all this time) then switch to D
Em7       Cadd9               G Cadd9 G Dsus4
time is a fast car passing me by

Em7         Cadd9                G  Cadd9 G Dsus4
i'm getting older and it feels alright

(the same for the rest of Bridge)

             Cadd9
But still it goes

play Verse and Chorus again    

Added On December 16th, 2013

SHARE

Comments

blog comments powered by Disqus

ADVERTISEMENT