Norma Jean Tabs

Self Employed Chemist

2 versions

TAB

            Norma Jean
   
                         Self-Employed Chemist


Drop C

      E   E   E   E   E   E   E   E      E   E   E   E   E   E   E   E   
D||----------------------------------|----------------------------------|
A||----------------------------------|----------------------------------|
F||----------------------------------|----------------------------------|
C||---8---8---8---8---8---8---8---8--|---8---8---8---8---8---8---8---8--|
G||--10--10--10--10--10--10--10--10--|--10--10--10--10--10--10--10--10--|
C||----------------------------------|----------------------------------|


  E  E  E  E  E  E  E  E     E  E  E  E  E    E   Q       Q    Q    Q    Q     
--------------------------|----------------------------|----------------------|
--------------------------|----------------------------|----------------------|
--------------------------|----------------------------|----------------------|
--8--8--8--8--8--8--8--8--|----------------------------|--1----1----1----1----|
--9--9--9--9--9--9--9--9--|--8--8--8--8--8h--10p--8----|--1----1----1----1----|
--------------------------|--8--8--8--8--8h--10p--8----|--1----1----1----1----|


  Q    Q    Q    Q       E  E  E  E  E  E  E  E     E  E  E  E  E  E  E  E   
----------------------|--------------------------|--------------------------|
----------------------|--------------------------|--------------------------|
----------------------|--------------------------|--------------------------|
--1----1----1----1----|--------------------------|--------------------------|
--1----1----1----1----|--0--0--0--0--0--0--0--0--|--3--3--3--3--3--3--3--3--|
--1----1----1----1----|--0--0--0--0--0--0--0--0--|--3--3--3--3--3--3--3--3--|


  E  E  E  E  E  E  E  E     E  E  E  E  E  E  E  E   
--------------------------|--------------------------|
--------------------------|--------------------------|
--3--3--3--3--3--3--3--3--|--3--3--3--3--3--3--3--3--|
--5--5--5--5--5--5--5--5--|--5--5--5--5--5--5--5--5--|
--5--5--5--5--5--5--5--5--|--5--5--5--5--5--5--5--5--|
--5--5--5--5--5--5--5--5--|--5--5--5--5--5--5--5--5--|


  E  E  E  E  E  E  E  E     E  E  E  E  E    E   Q       Q    Q    Q    Q     
--------------------------|----------------------------|----------------------|
--------------------------|----------------------------|----------------------|
--3--3--3--3--3--3--3--3--|----------------------------|----------------------|
--4--4--4--4--4--4--4--4--|----------------------------|--1----1----1----1----|
--4--4--4--4--4--4--4--4--|--8--8--8--8--8h--10p--8----|--1----1----1----1----|
--4--4--4--4--4--4--4--4--|--8--8--8--8--8h--10p--8----|--1----1----1----1----|


  Q    Q    Q    Q       E  E  E  E  E  E  E  E     E  E  E  E  E  E  E  E   
----------------------|--------------------------|--------------------------|
----------------------|--------------------------|--------------------------|
----------------------|--------------------------|--------------------------|
--1----1----1----1----|--------------------------|--------------------------|
--1----1----1----1----|--0--0--0--0--0--0--0--0--|--3--3--3--3--3--3--3--3--|
--1----1----1----1----|--0--0--0--0--0--0--0--0--|--3--3--3--3--3--3--3--3--|


  E  E  E  E  E  E  E  E     E  E  E  E  E  E  E  E   
--------------------------|--------------------------|
--------------------------|--------------------------|
--3--3--3--3--x--x--3--3--|--3--3--x--x--2--2--2--2--|
--5--5--5--5--x--x--5--5--|--5--5--x--x--3--3--3--3--|
--5--5--5--5--x--x--5--5--|--5--5--x--x--3--3--3--3--|
--5--5--5--5--x--x--5--5--|--5--5--x--x--3--3--3--3--|


  E  E  E  E  E  E  E  E     E  E  E  E  E  E  E  E   
--------------------------|--------------------------|
--------------------------|--------------------------|
--3--3--3--3--x--x--3--3--|--3--3--x--x--2--2--2--2--|
--5--5--5--5--x--x--5--5--|--5--5--x--x--3--3--3--3--|
--5--5--5--5--x--x--5--5--|--5--5--x--x--3--3--3--3--|
--5--5--5--5--x--x--5--5--|--5--5--x--x--3--3--3--3--|


  E  E  E  E  E  E  E  E     E  E  E  E  E  E  E  E   
--------------------------|--------------------------|
--------------------------|--------------------------|
--------------------------|--------------------------|
--------------------------|--------------------------|
--1--1--1--1--1--1--1--1--|--1--1--1--1--1--1--1--1--|
--1--1--1--1--1--1--1--1--|--1--1--1--1--1--1--1--1--|


  E  E  E  E  E  E  E  E     E  E  E  E  E  E  E  E     Q    Q    Q    Q     
--------------------------|--------------------------|----------------------|
--------------------------|--------------------------|----------------------|
--------------------------|--------------------------|-------3---------3----|
--------------------------|--------------------------|-------5---------5----|
--3--3--3--3--3--3--3--3--|--4--4--4--4--4--4--4--4--|-------5---------5----|
--3--3--3--3--3--3--3--3--|--4--4--4--4--4--4--4--4--|-------5---------5----|


  Q    Q    Q    Q       Q    Q    Q    Q       E  E  E  E  E    E   Q     
----------------------|----------------------|----------------------------|
----------------------|----------------------|----------------------------|
-------3---------3----|-------3---------3----|----------------------------|
-------5---------5----|-------4---------4----|----------------------------|
-------5---------5----|-------4---------4----|--8--8--8--8--8h--10p--8----|
-------5---------5----|-------4---------4----|--8--8--8--8--8h--10p--8----|


  E  E  E  E  E  E  E  E     E  E  E  E  E  E  E  E   
--------------------------|--------------------------|
--------------------------|--------------------------|
--------------------------|--------------------------|
--------------------------|--------------------------|
--1--1--1--1--1--1--1--1--|--1--1--1--1--1--1--1--1--|
--1--1--1--1--1--1--1--1--|--1--1--1--1--1--1--1--1--|


  E  E  E  E  E  E  E  E     E  E  E  E  E  E  E  E   
--------------------------|--------------------------|
--------------------------|--------------------------|
--------------------------|--------------------------|
--------------------------|--------------------------|
--0--0--0--0--0--0--0--0--|--3--3--3--3--3--3--3--3--|
--0--0--0--0--0--0--0--0--|--3--3--3--3--3--3--3--3--|


  E  E  E  E  E  E  E  E     E  E  E  E  E  E  E  E   
--------------------------|--------------------------|
--------------------------|--------------------------|
--3--3--3--3--3--3--3--3--|--3--3--3--3--3--3--3--3--|
--5--5--5--5--5--5--5--5--|--5--5--5--5--5--5--5--5--|
--5--5--5--5--5--5--5--5--|--5--5--5--5--5--5--5--5--|
--5--5--5--5--5--5--5--5--|--5--5--5--5--5--5--5--5--|


  E  E  E  E  E  E  E  E     E  E  E  E  E    E   Q       Q    Q    Q    Q     
--------------------------|----------------------------|----------------------|
--------------------------|----------------------------|----------------------|
--3--3--3--3--3--3--3--3--|----------------------------|----------------------|
--4--4--4--4--4--4--4--4--|----------------------------|--1----1----1----1----|
--4--4--4--4--4--4--4--4--|--8--8--8--8--8h--10p--8----|--1----1----1----1----|
--4--4--4--4--4--4--4--4--|--8--8--8--8--8h--10p--8----|--1----1----1----1----|


  Q    Q    Q    Q       E  E  E  E  E  E  E  E     E  E  E  E  E  E  E  E   
----------------------|--------------------------|--------------------------|
----------------------|--------------------------|--------------------------|
----------------------|--------------------------|--------------------------|
--1----1----1----1----|--------------------------|--------------------------|
--1----1----1----1----|--0--0--0--0--0--0--0--0--|--3--3--3--3--3--3--3--3--|
--1----1----1----1----|--0--0--0--0--0--0--0--0--|--3--3--3--3--3--3--3--3--|


  E  E  E  E  E  E  E  E     E  E  E  E  E  E  E  E   
--------------------------|--------------------------|
--------------------------|--------------------------|
--3--3--3--3--x--x--3--3--|--3--3--x--x--2--2--2--2--|
--5--5--5--5--x--x--5--5--|--5--5--x--x--3--3--3--3--|
--5--5--5--5--x--x--5--5--|--5--5--x--x--3--3--3--3--|
--5--5--5--5--x--x--5--5--|--5--5--x--x--3--3--3--3--|


  E  E  E  E  E  E  E  E     E  E  E  E  E  E  E  E   
--------------------------|--------------------------|
--------------------------|--------------------------|
--3--3--3--3--x--x--3--3--|--3--3--x--x--2--2--2--2--|
--5--5--5--5--x--x--5--5--|--5--5--x--x--3--3--3--3--|
--5--5--5--5--x--x--5--5--|--5--5--x--x--3--3--3--3--|
--5--5--5--5--x--x--5--5--|--5--5--x--x--3--3--3--3--|


  E  E  E  E  E  E  E  E     E  E  E  E  E  E  E  E   
--------------------------|--------------------------|
--------------------------|--------------------------|
--------------------------|--------------------------|
--------------------------|--------------------------|
--1--1--1--1--1--1--1--1--|--1--1--1--1--1--1--1--1--|
--1--1--1--1--1--1--1--1--|--1--1--1--1--1--1--1--1--|


  E  E  E  E  E  E  E  E     E  E  E  E  E  E  E  E   
--------------------------|--------------------------|
--------------------------|--------------------------|
--------------------------|--------------------------|
--------------------------|--------------------------|
--3--3--3--3--3--3--3--3--|--4--4--4--4--4--4--4--4--|
--3--3--3--3--3--3--3--3--|--4--4--4--4--4--4--4--4--|


  E  E  E  E  E  E  E  E     E  E  E  E  E  E  E  E   
--------------------------|--------------------------|
--------------4--4--4--4--|--3--3--3--3--------------|
--3--3--3--3--3--3--3--3--|--3--3--3--3--3--3--3--3--|
--1--1--1--1--1--1--1--1--|--1--1--1--1--1--1--1--1--|
--1--1--1--1--1--1--1--1--|--1--1--1--1--1--1--1--1--|
--1--1--1--1--1--1--1--1--|--1--1--1--1--1--1--1--1--|


  E  E  E  E  E  E  E  E     E  E  E  E  E  E  E  E   
--------------------------|--------------------------|
--------------8--8--8--8--|--6--6--6--6--8--8--8--8--|
--7--7--7--7--7--7--7--7--|--7--7--7--7--7--7--7--7--|
--5--5--5--5--5--5--5--5--|--5--5--5--5--5--5--5--5--|
--5--5--5--5--5--5--5--5--|--5--5--5--5--5--5--5--5--|
--5--5--5--5--5--5--5--5--|--5--5--5--5--5--5--5--5--|


  E  E  E  E  E  E  E  E     E  E  E  E  E  E  E  E     Q    Q    Q     Q     
--------------------------|--------------------------|-----------------------|
--------------4--4--4--4--|--3--3--3--3--------------|-----------------10----|
--3--3--3--3--3--3--3--3--|--3--3--3--3--3--3--3--3--|------------7-----x----|
--1--1--1--1--1--1--1--1--|--1--1--1--1--1--1--1--1--|--0----7----0-----0----|
--1--1--1--1--1--1--1--1--|--1--1--1--1--1--1--1--1--|--0----0----0-----0----|
--1--1--1--1--1--1--1--1--|--1--1--1--1--1--1--1--1--|--0----0----0-----0----|


   E   E   E   E   E   E   E   E     E  E  E  E  E  E  E  E   
--10--10--10--10--10--10--10--10--|--------------------------|
--10--10--10--10--10--10--10--10--|--------------4--4--4--4--|
---x---x---x---x---x---x---x---x--|--3--3--3--3--3--3--3--3--|
---0---0---0---0---0---0---0---0--|--1--1--1--1--1--1--1--1--|
---0---0---0---0---0---0---0---0--|--1--1--1--1--1--1--1--1--|
---0---0---0---0---0---0---0---0--|--1--1--1--1--1--1--1--1--|


  E  E  E  E  E  E  E  E     E  E  E  E  E  E  E  E   
--------------------------|--------------------------|
--3--3--3--3--------------|--------------8--8--8--8--|
--3--3--3--3--3--3--3--3--|--7--7--7--7--7--7--7--7--|
--1--1--1--1--1--1--1--1--|--5--5--5--5--5--5--5--5--|
--1--1--1--1--1--1--1--1--|--5--5--5--5--5--5--5--5--|
--1--1--1--1--1--1--1--1--|--5--5--5--5--5--5--5--5--|


  E  E  E  E  E  E  E  E     E  E  E  E  E  E  E  E   
--------------------------|--------------------------|
--6--6--6--6--8--8--8--8--|--------------4--4--4--4--|
--7--7--7--7--7--7--7--7--|--3--3--3--3--3--3--3--3--|
--5--5--5--5--5--5--5--5--|--1--1--1--1--1--1--1--1--|
--5--5--5--5--5--5--5--5--|--1--1--1--1--1--1--1--1--|
--5--5--5--5--5--5--5--5--|--1--1--1--1--1--1--1--1--|


  E  E  E  E  E  E  E  E     Q    Q    Q     Q     
--------------------------|-----------------------|
--3--3--3--3--------------|-----------------10----|
--3--3--3--3--3--3--3--3--|------------7-----x----|
--1--1--1--1--1--1--1--1--|--0----7----0-----0----|
--1--1--1--1--1--1--1--1--|--0----0----0-----0----|
--1--1--1--1--1--1--1--1--|--0----0----0-----0----|


   E   E   E   E   E   E   E   E      E   E   E   E   E   E   E   E   
--10--10--10--10--10--10--10--10--|----------------------------------|
--10--10--10--10--10--10--10--10--|----------------------------------|
---x---x---x---x---x---x---x---x--|----------------------------------|
---0---0---0---0---0---0---0---0--|---8---8---8---8---8---8---8---8--|
---0---0---0---0---0---0---0---0--|--10--10--10--10--10--10--10--10--|
---0---0---0---0---0---0---0---0--|----------------------------------|


  E  E  E  E  E    E   Q       Q    Q    Q    Q       Q    Q    Q    Q     
----------------------------|----------------------|----------------------|
----------------------------|----------------------|----------------------|
----------------------------|----------------------|----------------------|
----------------------------|--1----1----1----1----|--1----1----1----1----|
--8--8--8--8--8h--10p--8----|--1----1----1----1----|--1----1----1----1----|
--8--8--8--8--8h--10p--8----|--1----1----1----1----|--1----1----1----1----|


  E  E  E  E  E  E  E  E     E  E  E  E  E  E  E  E   
--------------------------|--------------------------|
--------------------------|--------------------------|
--------------------------|--------------------------|
--------------------------|--------------------------|
--0--0--0--0--0--0--0--0--|--3--3--3--3--3--3--3--3--|
--0--0--0--0--0--0--0--0--|--3--3--3--3--3--3--3--3--|


  E  E  E  E  E  E  E  E     E  E  E  E  E  E  E  E   
--------------------------|--------------------------|
--------------------------|--------------------------|
--3--3--3--3--3--3--3--3--|--3--3--3--3--3--3--3--3--|
--5--5--5--5--5--5--5--5--|--5--5--5--5--5--5--5--5--|
--5--5--5--5--5--5--5--5--|--5--5--5--5--5--5--5--5--|
--5--5--5--5--5--5--5--5--|--5--5--5--5--5--5--5--5--|


  E  E  E  E  E  E  E  E     E  E  E  E  E    E   Q     
--------------------------|----------------------------|
--------------------------|----------------------------|
--3--3--3--3--3--3--3--3--|----------------------------|
--4--4--4--4--4--4--4--4--|----------------------------|
--4--4--4--4--4--4--4--4--|--8--8--8--8--8h--10p--8----|
--4--4--4--4--4--4--4--4--|--8--8--8--8--8h--10p--8----|


  E  E  E  E  E  E  E  E     E  E  E  E  E  E  E  E   
--------------------------|--------------------------|
--------------------------|--------------------------|
--------------------------|--------------------------|
--------------------------|--------------------------|
--1--1--1--1--1--1--1--1--|--1--1--1--1--1--1--1--1--|
--1--1--1--1--1--1--1--1--|--1--1--1--1--1--1--1--1--|


  E  E  E  E  E  E  E  E     E  E  E  E  E  E  E  E   
--------------------------|--------------------------|
--------------------------|--------------------------|
--------------------------|--------------------------|
--------------------------|--------------------------|
--0--0--0--0--0--0--0--0--|--3--3--3--3--3--3--3--3--|
--0--0--0--0--0--0--0--0--|--3--3--3--3--3--3--3--3--|


  E  E  E  E  E  E  E  E     E  E  E  E  E  E  E  E   
--------------------------|--------------------------|
--------------------------|--------------------------|
--3--3--3--3--x--x--3--3--|--3--3--x--x--2--2--2--2--|
--5--5--5--5--x--x--5--5--|--5--5--x--x--3--3--3--3--|
--5--5--5--5--x--x--5--5--|--5--5--x--x--3--3--3--3--|
--5--5--5--5--x--x--5--5--|--5--5--x--x--3--3--3--3--|


  E  E  E  E  E  E  E  E     E  E  E  E  E  E  E  E   
--------------------------|--------------------------|
--------------------------|--------------------------|
--3--3--3--3--x--x--3--3--|--3--3--x--x--2--2--2--2--|
--5--5--5--5--x--x--5--5--|--5--5--x--x--3--3--3--3--|
--5--5--5--5--x--x--5--5--|--5--5--x--x--3--3--3--3--|
--5--5--5--5--x--x--5--5--|--5--5--x--x--3--3--3--3--|


  E  E  E  E  E  E  E  E     E  E  E  E  E  E  E  E   
--------------------------|--------------------------|
--------------------------|--------------------------|
--------------------------|--------------------------|
--------------------------|--------------------------|
--1--1--1--1--1--1--1--1--|--1--1--1--1--1--1--1--1--|
--1--1--1--1--1--1--1--1--|--1--1--1--1--1--1--1--1--|


  E  E  E  E  E  E  E  E     E  E  E  E  E  E  E  E   
--------------------------|--------------------------|
--------------------------|--------------------------|
--------------------------|--------------------------|
--------------------------|--------------------------|
--3--3--3--3--3--3--3--3--|--4--4--4--4--4--4--4--4--|
--3--3--3--3--3--3--3--3--|--4--4--4--4--4--4--4--4--|


  E  E  E  E  E  E  E  E     E  E  E  E  E  E  E  E   
--------------------------|--------------------------|
--------------4--4--4--4--|--3--3--3--3--------------|
--3--3--3--3--3--3--3--3--|--3--3--3--3--3--3--3--3--|
--1--1--1--1--1--1--1--1--|--1--1--1--1--1--1--1--1--|
--1--1--1--1--1--1--1--1--|--1--1--1--1--1--1--1--1--|
--1--1--1--1--1--1--1--1--|--1--1--1--1--1--1--1--1--|


  E  E  E  E  E  E  E  E     E  E  E  E  E  E  E  E   
--------------------------|--------------------------|
--------------8--8--8--8--|--6--6--6--6--8--8--8--8--|
--7--7--7--7--7--7--7--7--|--7--7--7--7--7--7--7--7--|
--5--5--5--5--5--5--5--5--|--5--5--5--5--5--5--5--5--|
--5--5--5--5--5--5--5--5--|--5--5--5--5--5--5--5--5--|
--5--5--5--5--5--5--5--5--|--5--5--5--5--5--5--5--5--|


  E  E  E  E  E  E  E  E     E  E  E  E  E  E  E  E     Q    Q    Q     Q     
--------------------------|--------------------------|-----------------------|
--------------4--4--4--4--|--3--3--3--3--------------|-----------------10----|
--3--3--3--3--3--3--3--3--|--3--3--3--3--3--3--3--3--|------------7-----x----|
--1--1--1--1--1--1--1--1--|--1--1--1--1--1--1--1--1--|--0----7----0-----0----|
--1--1--1--1--1--1--1--1--|--1--1--1--1--1--1--1--1--|--0----0----0-----0----|
--1--1--1--1--1--1--1--1--|--1--1--1--1--1--1--1--1--|--0----0----0-----0----|


   E   E   E   E   E   E   E   E     E  E  E  E  E  E  E  E   
--10--10--10--10--10--10--10--10--|--------------------------|
--10--10--10--10--10--10--10--10--|--------------4--4--4--4--|
---x---x---x---x---x---x---x---x--|--3--3--3--3--3--3--3--3--|
---0---0---0---0---0---0---0---0--|--1--1--1--1--1--1--1--1--|
---0---0---0---0---0---0---0---0--|--1--1--1--1--1--1--1--1--|
---0---0---0---0---0---0---0---0--|--1--1--1--1--1--1--1--1--|


  E  E  E  E  E  E  E  E     E  E  E  E  E  E  E  E   
--------------------------|--------------------------|
--3--3--3--3--------------|--------------8--8--8--8--|
--3--3--3--3--3--3--3--3--|--7--7--7--7--7--7--7--7--|
--1--1--1--1--1--1--1--1--|--5--5--5--5--5--5--5--5--|
--1--1--1--1--1--1--1--1--|--5--5--5--5--5--5--5--5--|
--1--1--1--1--1--1--1--1--|--5--5--5--5--5--5--5--5--|


  E  E  E  E  E  E  E  E     E  E  E  E  E  E  E  E   
--------------------------|--------------------------|
--6--6--6--6--8--8--8--8--|--------------4--4--4--4--|
--7--7--7--7--7--7--7--7--|--3--3--3--3--3--3--3--3--|
--5--5--5--5--5--5--5--5--|--1--1--1--1--1--1--1--1--|
--5--5--5--5--5--5--5--5--|--1--1--1--1--1--1--1--1--|
--5--5--5--5--5--5--5--5--|--1--1--1--1--1--1--1--1--|


  E  E  E  E  E  E  E  E     Q    Q    Q     Q     
--------------------------|-----------------------|
--3--3--3--3--------------|-----------------10----|
--3--3--3--3--3--3--3--3--|------------7-----x----|
--1--1--1--1--1--1--1--1--|--0----7----0-----0----|
--1--1--1--1--1--1--1--1--|--0----0----0-----0----|
--1--1--1--1--1--1--1--1--|--0----0----0-----0----|


   E   E   E   E   E   E   E   E     E  E  E  E  E  E  E  E   
--10--10--10--10--10--10--10--10--|--------------------------|
--10--10--10--10--10--10--10--10--|--8--8--8--8--8--8--8--8--|
---x---x---x---x---x---x---x---x--|--------------------------|
---0---0---0---0---0---0---0---0--|--------------------------|
---0---0---0---0---0---0---0---0--|--------------------------|
---0---0---0---0---0---0---0---0--|--------------------------|


  E  E  E  E  E  E  E  E     E  E  E  E  E  E  E  E   
--------------------------|--------------------------|
--8--8--8--8--7--7--7--7--|--8--8--8--8--8--8--8--8--|
--------------------------|--------------------------|
--------------------------|--------------------------|
--------------------------|--------------------------|
--------------------------|--------------------------|


  E  E  E  E  E  E  E  E     E  E  E  E  E  E  E  E   
--------------------------|--------------------------|
--8--8--8--8--7--7--7--7--|--8--8--8--8--8--8--8--8--|
--------------------------|--------------------------|
--------------------------|--------------------------|
--------------------------|--------------------------|
--------------------------|--------------------------|


  E  E  E  E  E  E  E  E     E  E  E  E  E  E  E  E   
--------------------------|--------------------------|
--8--8--8--8--7--7--7--7--|--8--8--8--8--8--8--8--8--|
--------------------------|--------------------------|
--------------------------|--------------------------|
--------------------------|--------------------------|
--------------------------|--------------------------|


  E  E  E  E  E  E  E  E     E  E  E  E  E  E  E  E   
--------------------------|--------------------------|
--8--8--8--8--7--7--7--7--|--8--8--8--8--8--8--8--8--|
--------------------------|--------------------------|
--------------------------|--------------------------|
--------------------------|--------------------------|
--------------------------|--------------------------|


  E  E  E  E  E  E  E  E     E  E  E  E  E  E  E  E   
--------------------------|--------------------------|
--8--8--8--8--7--7--7--7--|--8--8--8--8--8--8--8--8--|
--------------------------|--------------------------|
--------------------------|--------------------------|
--------------------------|--------------------------|
--------------------------|--------------------------|


  E  E  E  E  E  E  E  E     E  E  E  E  E  E  E  E   
--------------------------|--------------------------|
--8--8--8--8--7--7--7--7--|--8--8--8--8--8--8--8--8--|
--------------------------|--------------------------|
--------------------------|--------------------------|
--------------------------|--------------------------|
--------------------------|--------------------------|


  E  E  E  E  E  E  E  E     E  E  E  E  E  E  E  E   
--------------------------|--------------------------|
--8--8--8--8--7--7--7--7--|--8--8--8--8--8--8--8--8--|
--------------------------|--------------------------|
--------------------------|--------------------------|
--------------------------|--------------------------|
--------------------------|--------------------------|


  E  E  E  E  E  E  E  E     E  E  E  E  E  E  E  E   
--------------------------|--------------------------|
--8--8--8--8--7--7--7--7--|--8--8--8--8--x--x--8--8--|
--------------------------|--7--7--7--7--x--x--7--7--|
--------------------------|--5--5--5--5--x--x--5--5--|
--------------------------|--------------------------|
--------------------------|--------------------------|


  E  E  E  E   E   E   E   E     E  E  E  E  E  E  E  E   
--------------10--10--10--10--|--------------------------|
--8--8--x--x---6---6---6---6--|--8--8--8--8--x--x--8--8--|
--7--7--x--x---7---7---7---7--|--7--7--7--7--x--x--7--7--|
--5--5--x--x------------------|--5--5--5--5--x--x--5--5--|
------------------------------|--------------------------|
------------------------------|--------------------------|


  E  E  E  E   E   E   E   E     E  E  E  E  E  E  E  E   
--------------10--10--10--10--|--------------------------|
--8--8--x--x---6---6---6---6--|--8--8--8--8--x--x--8--8--|
--7--7--x--x---7---7---7---7--|--7--7--7--7--x--x--7--7--|
--5--5--x--x------------------|--5--5--5--5--x--x--5--5--|
------------------------------|--------------------------|
------------------------------|--------------------------|


  E  E  E  E   E   E   E   E     E  E  E  E  E  E  E  E   
--------------10--10--10--10--|--------------------------|
--8--8--x--x---6---6---6---6--|--8--8--8--8--x--x--8--8--|
--7--7--x--x---7---7---7---7--|--7--7--7--7--x--x--7--7--|
--5--5--x--x------------------|--5--5--5--5--x--x--5--5--|
------------------------------|--------------------------|
------------------------------|--------------------------|


  E  E  E  E   E   E   E   E     E  E  E  E  E  E  E  E   
--------------10--10--10--10--|--------------------------|
--8--8--x--x---6---6---6---6--|--------------4--4--4--4--|
--7--7--x--x---7---7---7---7--|--3--3--3--3--3--3--3--3--|
--5--5--x--x------------------|--1--1--1--1--1--1--1--1--|
------------------------------|--1--1--1--1--1--1--1--1--|
------------------------------|--1--1--1--1--1--1--1--1--|


  E  E  E  E  E  E  E  E     E  E  E  E  E  E  E  E   
--------------------------|--------------------------|
--3--3--3--3--------------|--------------8--8--8--8--|
--3--3--3--3--3--3--3--3--|--7--7--7--7--7--7--7--7--|
--1--1--1--1--1--1--1--1--|--5--5--5--5--5--5--5--5--|
--1--1--1--1--1--1--1--1--|--5--5--5--5--5--5--5--5--|
--1--1--1--1--1--1--1--1--|--5--5--5--5--5--5--5--5--|


  E  E  E  E  E  E  E  E     E  E  E  E  E  E  E  E   
--------------------------|--------------------------|
--6--6--6--6--8--8--8--8--|--------------4--4--4--4--|
--7--7--7--7--7--7--7--7--|--3--3--3--3--3--3--3--3--|
--5--5--5--5--5--5--5--5--|--1--1--1--1--1--1--1--1--|
--5--5--5--5--5--5--5--5--|--1--1--1--1--1--1--1--1--|
--5--5--5--5--5--5--5--5--|--1--1--1--1--1--1--1--1--|


  E  E  E  E  E  E  E  E     Q    Q    Q     Q     
--------------------------|-----------------------|
--3--3--3--3--------------|-----------------10----|
--3--3--3--3--3--3--3--3--|------------7-----x----|
--1--1--1--1--1--1--1--1--|--0----7----0-----0----|
--1--1--1--1--1--1--1--1--|--0----0----0-----0----|
--1--1--1--1--1--1--1--1--|--0----0----0-----0----|


   E   E   E   E   E   E   E   E     E  E  E  E  E  E  E  E   
--10--10--10--10--10--10--10--10--|--------------------------|
--10--10--10--10--10--10--10--10--|--------------4--4--4--4--|
---x---x---x---x---x---x---x---x--|--3--3--3--3--3--3--3--3--|
---0---0---0---0---0---0---0---0--|--1--1--1--1--1--1--1--1--|
---0---0---0---0---0---0---0---0--|--1--1--1--1--1--1--1--1--|
---0---0---0---0---0---0---0---0--|--1--1--1--1--1--1--1--1--|


  E  E  E  E  E  E  E  E     E  E  E  E  E  E  E  E   
--------------------------|--------------------------|
--3--3--3--3--------------|--------------8--8--8--8--|
--3--3--3--3--3--3--3--3--|--7--7--7--7--7--7--7--7--|
--1--1--1--1--1--1--1--1--|--5--5--5--5--5--5--5--5--|
--1--1--1--1--1--1--1--1--|--5--5--5--5--5--5--5--5--|
--1--1--1--1--1--1--1--1--|--5--5--5--5--5--5--5--5--|


  E  E  E  E  E  E  E  E     E  E  E  E  E  E  E  E   
--------------------------|--------------------------|
--6--6--6--6--8--8--8--8--|--------------4--4--4--4--|
--7--7--7--7--7--7--7--7--|--3--3--3--3--3--3--3--3--|
--5--5--5--5--5--5--5--5--|--1--1--1--1--1--1--1--1--|
--5--5--5--5--5--5--5--5--|--1--1--1--1--1--1--1--1--|
--5--5--5--5--5--5--5--5--|--1--1--1--1--1--1--1--1--|


  E  E  E  E  E  E  E  E     Q    Q    Q     Q     
--------------------------|-----------------------|
--3--3--3--3--------------|-----------------10----|
--3--3--3--3--3--3--3--3--|------------7-----x----|
--1--1--1--1--1--1--1--1--|--0----7----0-----0----|
--1--1--1--1--1--1--1--1--|--0----0----0-----0----|
--1--1--1--1--1--1--1--1--|--0----0----0-----0----|


   E   E   E   E   E   E   E   E     E  E  E  E  E  E  E  E   
--10--10--10--10--10--10--10--10--|--------------------------|
--10--10--10--10--10--10--10--10--|--------------------------|
---x---x---x---x---x---x---x---x--|--3--3--3--3--x--x--3--3--|
---0---0---0---0---0---0---0---0--|--5--5--5--5--x--x--5--5--|
---0---0---0---0---0---0---0---0--|--5--5--5--5--x--x--5--5--|
---0---0---0---0---0---0---0---0--|--5--5--5--5--x--x--5--5--|


                                              PM                           
  E  E  E  E  E  E  Q       E  E  E  E  E  E  Q       Q    Q     H         
-------------------------|-------------------------|----------------------|
-------------------------|-------------------------|----------------------|
--3--3--x--x--2--2-------|--3--3--3--3--x--x-------|----------------------|
--5--5--x--x--3--3-------|--5--5--5--5--x--x-------|----------------------|
--5--5--x--x--3--3-------|--5--5--5--5--x--x--0----|--1----3~----0--------|
--5--5--x--x--3--3-------|--5--5--5--5--x--x--0----|--1----3~----0--------|


                                                                         PM    
  E  E  E  E  E  E  E  E     E  E  E  E  E  E  Q       E  E  E  E  E  E  Q     
--------------------------|-------------------------|-------------------------|
--------------------------|-------------------------|-------------------------|
--3--3--3--3--x--x--3--3--|--3--3--x--x--2--2-------|--3--3--3--3--x--x-------|
--5--5--5--5--x--x--5--5--|--5--5--x--x--3--3-------|--5--5--5--5--x--x-------|
--5--5--5--5--x--x--5--5--|--5--5--x--x--3--3-------|--5--5--5--5--x--x--0----|
--5--5--5--5--x--x--5--5--|--5--5--x--x--3--3-------|--5--5--5--5--x--x--0----|


  Q    Q     H          
----------------------||
----------------------||
----------------------||
----------------------||
--1----3~----0--------||
--1----3~----0--------||




Duration Legend
---------------
W - whole
H - half
Q - quarter
E - 8th
S - 16th
T - 32nd
X - 64th
. - note dotted
|-n-|  - n-tuplets


Tablature Legend
----------------
L - tied note
x - dead note
g - grace note
(n) - ghost note
> - accentuded note
NH - natural harmonic
AH - artificial harmonic
TH - tapped harmonic
SH - semi harmonic
PH - pitch harmonic
h - hammer on
p - pull off
b - bend
br - bendRelease
pb - preBend
pbr - preBendRelease
brb - bendReleaseBend
\n/ - tremolo bar dip
\n - tremolo bar dive
-/n - tremolo bar Release up
/n\ - tremolo bar inverted dip
/n - tremolo bar return
-\n - tremolo bar Release down
S - shift slide
s - legato slide
/ -  slide into from below or out of upwards
\ -  slide into from above or out of downwards
~ - vibrato
W - wide vibrato
tr - trill
TP - tremolo picking
T - tapping
S - slap
P - pop
< - fade in
^ - brush up
v - brush down    

Added On December 16th, 2013

SHARE

Comments

blog comments powered by Disqus

VERSIONS

ADVERTISEMENT