Nouvelle Vague Tabs

This Is Not A Love Song

1 versions

TAB

            Nouvelle Vague - This is not a Love Song

Couplet:
g# maj7

--4-----------4-----------|
--6-----------x-----------|
--4-----------4-----------|
--5-----------5-----------|
--7-----------7-----------|
--4-----------6-----------|

Refrein:
A maj7
g# maj7
C# maj 7

--5----------4-----------x-----------|
--7----------6-----------4-----------|
--5----------4-----------6-----------|
--6----------5-----------4-----------|
--8----------7-----------5-----------|
--5----------4-----------4-----------|

Tabbed by Vincent Hurkens    

Added On December 16th, 2013

SHARE

Comments

blog comments powered by Disqus

ADVERTISEMENT