Open Hand Tabs

Time To Talk

1 versions

TAB

            Time To Talk Tab by Open Hand


Open Hand - Time to Talk

Intro:

Guitar 1
e|----------------------------------|----------------------------------|
b|----------0---------------0-------|---------0----------------0-------|
g|------4-----4---4-----4-----4---4-|-----4-----4---4------4-----4---4-|
d|----6---6-----6-----6---6-----6---|---6---6-----6------6---6-----6---|
a|--4---------------4---------------|-0----------------0---------------|
e|----------------------------------|----------------------------------|

e|----------------------------------|----------------------------------|
b|----------0---------------0-------|---------0---------------0--------|
g|------4-----4---4-----4-----4---4-|-----4-----4---4-----4-----4---4--|
d|----6---6-----6-----6---6-----6---|---6---6-----6-----6---6-----6----|
a|--2---------------2---------------|-0---------------0----------------|
e|----------------------------------|----------------------------------|

Guitar 2                                                      |__?___|
e|----------------------------------|----------------------------------|
b|--5-----5-----5-----5-----5---5---|-5-----5-----5-----5-----5---5----|
g|----4-----4-----4-----4-----4---4-|---4-----4-----4-----4-----4---4--|
d|------2-----2-----2-----2---------|-----2-----2-----2-----2----------|
a|----------------------------------|----------------------------------|
e|----------------------------------|----------------------------------|

e|----------------------------------|----------------------------------|
b|--4-----4-----4-----4-----4---4---|-5-----5-----5------5----5---5----|
g|----4-----4-----4-----4-----4---4-|---4-----4-----4------4----4---4--|
d|------2-----2-----2-----2---------|----2-----2------2-----2----------|
a|----------------------------------|----------------------------------|
e|----------------------------------|----------------------------------|

e|-------------------------|--------------------------0---------|
b|-------------------------|---------0--------------------------|
g|-------------------------|-----2-----2---2------2------2---2--|
d|-----6----2-------6---2--|---2---2-----2------2---2------2----|
a|-----4----0-------4---0--|-0----------------0-----------------|
e|--0-----------0----------|------------------------------------|


Guitar 1                     |_1._                             |_2._
e|---------------------------|---------------------------------|---------------------------------|
b|---------------------------|---------------------------------|-----------------------.---------|
g|--------6-------------6----|----------6----------6---6-------|---------6-------------6---------|
d|----6------6------6------6-|-----6------6------6---6---6---6-|----6------6------6--------------|
a|--4---4---------4---4------|---0---0---------0-----------0---|--0---0---------0---0------------|
e|---------------------------|---------------------------------|---------------------------------|

Guitar 2
e|-----------------------------------|-----------------------------------|
b|-----------------------------------|-----------------------------------|
g|-----13----14-11------13----14-11--|-----13----14-11------13----14-11--|
d|--11----11---------11----11--------|--11----11---------11----11--------|
a|-----------------------------------|-----------------------------------|
e|-----------------------------------|-----------------------------------|

@1:42
e|---0---------0---------0---------0--------|
b|---0---------0---------0---------0--------|
g|---6---------2---------4---------4--------|
d|---6---------2---------4---------4--------|
a|---4---------0---------2---------2--------|
e|------------------------------------------|

Im still working on the Interlude part. Just wanted to put this out, seeing as though
i haven't found any versions of it over the net. maybe im looking in the wrong places,
and if so, im guessing other people are as well. so here it is for all to play. awesome
song. im 99% sure that this tab is 100% correct, but if you want to play it differently,
say in another position, im open to alterations. ill get the interlude up soon hopefully.
enjoy the tab, tell me your thoughts , email me at s_starbuck100@hotmail.com    

Added On December 5th, 2013

SHARE

Comments

blog comments powered by Disqus

ADVERTISEMENT