Ourania Tabs

Biat

1 versions

TAB

            -------------------------------------------------------------------------------
			   Bait - Ourania
-------------------------------------------------------------------------------
Tabbed by: Little Italy


Tuning:Drop D


Verse: Lead guitar:
d|--------------------------------------------------------------------------|
A|5-5--9--9--3-3--7-7---5-5--9--9--3-3--5-5---------------------------------|
D|-7----11----5----9-----7----11----5----7----------------------------------|
G|--------------------------------------------------------------------------|
B|-----------------------------------------------Four-times-----------------|
E|--------------------------------------------------------------------------|


Verse: Rythum guitar: Palmmutted
d|--------------------------------------------------------------------------|
A|5-5--9--9---3-3--7-7---5-5--9--9---3-3--5-5-------------------------------|
D|7-7--11-11--5-5--9-9---7-7--11-11--5-5--7-7-------------------------------|
G|--------------------------------------------------------------------------|
B|------------------------------------------------four-times----------------|
E|--------------------------------------------------------------------------|


Chorus: Both:
d|3-xx-3-x--5-5-5-5---3-xx-3--2-2-2-----------------------------------------|
A|3-xx-3-x--5-5-5-5---3-xx-3--2-2-2-----------------------------------------|
D|3-xx-3-x--5-5-5-5---3-xx-3--2-2-2-----------------------------------------|
G|--------------------------------------------------------------------------|
B|-----------------------------------------------eight-times----------------|
D|--------------------------------------------------------------------------|


Verse: Lead guitar:
d|--------------------------------------------------------------------------|
A|5-5--9--9--3-3--7-7---5-5--9--9--3-3--5-5---------------------------------|
D|-7----11----5----9-----7----11----5----7----------------------------------|
G|--------------------------------------------------------------------------|
B|-----------------------------------------------eight-times----------------|
E|--------------------------------------------------------------------------|


Verse: Rythum guitar: Palmmutted
d|--------------------------------------------------------------------------|
A|5-5--9--9---3-3--7-7---5-5--9--9---3-3--5-5-------------------------------|
D|7-7--11-11--5-5--9-9---7-7--11-11--5-5--7-7-------------------------------|
G|--------------------------------------------------------------------------|
B|-----------------------------------------------eight-times----------------|
E|--------------------------------------------------------------------------|


Chorus: Both:
d|3-xx-3-x--5-5-5-5---3-xx-3--2-2-2-----------------------------------------|
A|3-xx-3-x--5-5-5-5---3-xx-3--2-2-2-----------------------------------------|
D|3-xx-3-x--5-5-5-5---3-xx-3--2-2-2-----------------------------------------|
G|--------------------------------------------------------------------------|
B|-----------------------------------------------eight-times----------------|
E|--------------------------------------------------------------------------|



Bridge:
d|3--x-x-x-x-x-x-x-x--------------------------------------------------------|
A|3-----------------3-5-----------------------------------------------------|
D|3-----------------5-7-----------------------------------------------------|
G|--------------------------------------------------------------------------|
B|-----------------------------------------------eight-times----------------|
E|--------------------------------------------------------------------------|




Chorus: Both:
d|3-xx-3-x--5-5-5-5---3-xx-3--2-2-2-----------------------------------------|
A|3-xx-3-x--5-5-5-5---3-xx-3--2-2-2-----------------------------------------|
D|3-xx-3-x--5-5-5-5---3-xx-3--2-2-2-----------------------------------------|
G|--------------------------------------------------------------------------|
B|-----------------------------------------------eight-times----------------|
E|--------------------------------------------------------------------------|    

Added On December 16th, 2013

SHARE

Comments

blog comments powered by Disqus

ADVERTISEMENT