Overkill Tabs

Fuck You

3 versions

TAB

            Fuck You Tab by Overkill


Fuck You
Overkill

     Intro: Bass part                                                 
E||-------------------------|------------------------|
B||-------------------------|------------------------|
G||*------------------------|------------------------|
D||*------------------------|------------------------|
A||-------------------------|------------------------|
D||---0h2---2--2----2--2----|--0h2---2--2----2--2----|


 Guitar comes in here.                          Verse                                               
------------------------------|-------------||---------------------------|
------------------------------|-------------||---------------------------|
------------------------------|------------*||*--------------------------|
------------------------------|------------*||*--------------------------|
--5--5--5--0----5--5--5--0----|--5----0-----||---0--2--------------------|
--5--5--5--0----5--5--5--0----|--5----0-----||---0h-2--2--2--2--2--2--2--|


                                                                       3x
--------------------------|------------------------------|-------------||
--------------------------|------------------------------|-------------||
--------------------------|------------------------------|------------*||
--------------------------|------------------------------|------------*||
--------------------------|--5--5--5--0----5--5--5--0----|--5----0-----||
--2--2--2--2--2--2--2--2--|--5--5--5--0----5--5--5--0----|--5----0-----||


   We don't care what you say...    Fuck You!                                                                      
-----------------------|---------------------|--------------------------|
-----------------------|---------------------|--------------------------|
*----------------------|---------------------|--------------------------|
*----------------------|---------------------|--------------------------|
---10------9------8----|----7------5----0----|--------------------------|
---10------9------8----|----7------5----0----|--2--2--2--2--2--2--2--2--|


                               Verse Again                          
---------------------------||---------------------------|
---------------------------||---------------------------|
--------------------------*||*--------------------------|
--------------------------*||*--------------------------|
---------------------------||---0--2--------------------|
--2--2--2--2--2--2--2--2---||---0h-2--2--2--2--2--2--2--|


                                                                       3x
--------------------------|------------------------------|-------------||
--------------------------|------------------------------|-------------||
--------------------------|------------------------------|------------*||
--------------------------|------------------------------|------------*||
--------------------------|--5--5--5--0----5--5--5--0----|--5----0-----||
--2--2--2--2--2--2--2--2--|--5--5--5--0----5--5--5--0----|--5----0-----||


   We don't care what you say...    Fuck You!                                                                      
-----------------------|---------------------|--------------------------|
-----------------------|---------------------|--------------------------|
*----------------------|---------------------|--------------------------|
*----------------------|---------------------|--------------------------|
---10------9------8----|----7------5----0----|--------------------------|
---10------9------8----|----7------5----0----|--2--2--2--2--2--2--2--2--|


                             
---------------------------||
---------------------------||
--------------------------*||
--------------------------*||
---------------------------||
--2--2--2--2--2--2--2--2---||

The rest of the song should be pretty easy to figure out, it's about their
easiest song to play, all but the solo, if someone else can do it please
feel free, and send it in, I'll post it.    

Added On December 5th, 2013

SHARE

Comments

blog comments powered by Disqus

VERSIONS

ADVERTISEMENT