Panic At The Disco Tabs

Nine In The Afternoon

8 versions

TAB

            Nine In The Afternnon

b=bend to 2 notes higher
br=bend to two notes higher than release
h=hammer-on
p=pull-off
/=slide down
\=slide up
~=let ring



Guitar 1-clean-Drop D (Dadgbe)
Guitar 2-acoustic-Drop D
all guitar 1 unless otherwise stated

Intro (right before lyrics)

e|-------------|
B|-------------|
G|--3-5(br)-3--|
D|-------------|
A|-1-----------|
D|-------------|


Verse 

"Back to the streets where we began, feelin as good as lovers can you

e|-------------------------------------------------------------------|
B|-------------------------------------------------------------------|
G|------------------------------------3------------------------------|
D|------------------------------------x------------------------------|
A|------------------------------------1------------------------------|
D|-------------------------------------------------------------------|

know    Now were feelin so good

e|--------------------|
B|--------------------| the last note in parenthesis is played in the 
G|----3-5(br)-3--3----| 2nd, 3rd, 4th verses.
D|-3h5----------1-(1)-|
A|--------------------|
D|--------------------|

Repeat Verse

After Verse

e|------------------------------------------------|
B|------------------------------------------------|
G|----3-5-3----3-5-3----3-5-3-777777777/3h5p3~~~~-|
D|-3h5------3h5------3h5--------------------------|
A|------------------------------------------------|
D|------------------------------------------------|

Repeat Verse x2

Chorus pt 1

e|--------------------------------------|
B|--------------------------------------|
G|-333333-22----------------------------|
D|-333333-22-55555555-00000000-11111111-|
A|-111111-00-55555555-00000000-11111111-|
D|-----------55555555-00000000-11111111-|

Chorus pt 2

e|------------------------------|
B|------------------------------|
G|-333333-22--------------------|
D|-333333-22-55555555-0000-00-1-|
A|-111111-00-55555555-0000-00-1-|
D|-----------55555555-0000-00-1-|

preverse

e|------------|
B|------------|
G|--3-5(br)-3-|
D|------------|
A|-1----------|
D|------------|

verse x2

after verse x2

chorus pt 1 x2

last chorus

e|-----------------------|
B|-----------------------|
G|-3~3-------------------|
D|-3~3---5~5---0~0---1~1-|
A|-1~1---5~5---0~0---1~1-|
D|-------5~5---0~0---1~1-|


at 3:39 guitar 2 comes in and plays chorus once



note:

Chorus can also be played like this

e|--------------------------------------|
B|--------------------------------------|
G|--------------------------------------|
D|-888888-77-55555555-00000000-11111111-|
A|-888888-77-55555555-00000000-11111111-|
D|-888888-77-55555555-00000000-11111111-|

thats it
play it before you rate it    

Added On December 16th, 2013

SHARE

Comments

blog comments powered by Disqus