Parachute Band Tabs

Gave It All

1 versions

TAB

            Standrard Tuning

-Chorus--- (overdrive)

 ------------------------------------------------|
 -------------------------------12-12-12--12-----|
 -7-7-7--7-4--7-7-7--7-9--(x2)---------------11--|
 -0-0-0--0-0--0-0-0--0-0-------------------------|
 ------------------------------------------------|
 ------------------------------------------------|

 -----------12p10-----|
 -------12--------12--|
 -9/11----------------|
 ---------------------|
 ---------------------|
 ---------------------|

 Strum:

 -------------------------------|
 -------------------------------|
 -11h12--12------11h12--12-9-7--|
 -12-----12-[12]-12-----12------|
 -------------------------------|
 -------------------------------|

-2nd Verse (half)---

 Strum: (cleaner sound

 -[7]-
 -[7]-
 -[7]-
 -----
 -----
 -----

-Bridge---

(lots of delay and overdrive with wah)

 Trememlo picking
 -----
 -----
 -----
 -----
 -----
 -10--    

Added On December 16th, 2013

SHARE

Comments

blog comments powered by Disqus

ADVERTISEMENT