Paramore Tabs

Here We Go Again

7 versions

TAB

            This was tabbed by Josh from Paramore
I just wanted to put it up. Not tabbed by me

HERE WE GO AGAIN- guitar tab by josh ( paramore)


Intro – lead guitar
e -----------------------------------|
b------------------------------------|
g----16—16/11--11/13---9--8—8/9/8----|
d------------------------------------|
a--- 14— 14/9— 9/11----7--6—6/7/6----|
D------------------------------------|


e -----------------------------------------------------|
b------------------------------------------------------|
g----16—16/11--11/13---9--8--4--4--6--6---4/6----------|
d------------------------------------------------------|
a--- 14— 14/9— 9/11----7--6--2--2--4--4---2/4----------|
D------------------------------------------------------|

Intro and verse rhythm guitar

e -----------------------------------|
b----9-9-9-9-------------------------|
g----9-9-9-9----9---9--9--9----------|
d----9-9-9-9----x—x--x--x---(2x)-----|
a----7-7-7-7---11-11-11-11-----------|
D----7-7-7-7---11-11-11-11-----------|

Verse lead guitar

e ------4--5--7---7---7---7---------|
b--------5--5---5---5---5---5-------|(3x)
g-----------------------------------|
d-----------------------------------|
a-----------------------------------|
D-----------------------------------|

On 4th time

e ------4--5--7---7---5---5---4---4--|
b--------5--5---5---5---5---5--5---5-|
g------------------------------------|
d------------------------------------|
a------------------------------------|
D------------------------------------|

Chorus rhythm guitar (strum according to the cd)
e --------------------------------|
b------9--------------------------|
g------9---9----8--9--------------|
d------9---x----------------------|
a------7--11----6--7--------------|
D-----7---11----------------------|

e --------------------------------|
b------9--------------------------|
g------9---9----------------------|
d------9---x------9---------------|
a------7---11-----6---------------|
D------7---11------6--------------|

Chorus lead guitar

e ----------------------------------------------------12-12-12-12-11-11-11-11--|
b--9-9-9-9-10-10-10-10--12-12-12-12-10-10--9-9-9-9--9--9--9--9--9--9--9--9-----|
g--9-9-9-9- 9--9--9--9---9--9--9--9---9--9--9-9-9-9--9--9--9--9--9--9--9--9----|
e---11-11-11-11-11-11-11-11----------------------------------------------------|
b---12-12-12-12-12-12-12-12----(2x)--------------------------------------------|
g----9--9--9--9--9---9--9--9---------------------------------------------------|


That’s pretty much the whole song. You can figure out the rest by knowing these chords.
Fun. Sorry the alignment sucks. im too lazy to fix it.    

Added On December 16th, 2013

SHARE

Comments

blog comments powered by Disqus