Paramore Tabs

Still Into You

2 versions

TAB

            -------------------------------------------------------------------------------
                             Still Into You - Paramore
-------------------------------------------------------------------------------
Tabbed by: Vikki Brand
E-mail: Vikkiebrand@gmail.com

Tuning: Standard

This is my first Tab so it may be a little bit rough round the edges but you got 
to start somewhere! 
I have done this all by ear because I couldn't wait for someone else to do a tab 
hahah :D another thing 
Paramore is my all time favorite band so I am pretty stoked about this song! ENJOY!

Verse riff:

e|---------------------------------------------------------------------------------------|
B|---------------------------------------------------------------------------------------|
G|---------------------------------------------------------------------------------------|
D|------------------2-----------------2--------------------2---------------------2-------|
A|------------0--3--------------0--3----3-----------0--3------------------0--3-----3-----|
E|----1----1------------1----1--------------1----1-----------------1----1----------------|

e|---------------------------------------------------------------------------------------|
B|---------------------------------------------------------------------------------------|
G|---------------------------------------------------------------------------------------|
D|-------------------2------------------2----------------------2-------------------2-----|
A|----5----5---0--3------5----5---0--3-----3----5----5---0--3-------5----5---0--3-----3--|
E|---------------------------------------------------------------------------------------| x2

Verse Lyrics:

Can't count the years on one hand,

that we've been together.

I need the other one to hold you, 

make you feel, make you feel better.

It's not a walk in the park,

to love each other.

But when our fingers interlock, 

can't deny, can't deny your worth it.


Chorus:

(mute)                A#
Cause after all this time,
      B#        F
I'm still into you.
(strum)                  A#        B#
I should be over all the butterflies,
              F
But I'm into you.  (I'm into you)
                     A#         B#   
And baby even on our worst nights, 
          F
I'm into you.  (I'm into you)
                       A#          B# 
Let 'em wonder how we got this far,
                               Dm       F
Cause I don't really need to wonder at all.
                      A#
Yeah after all this time, 
      B#        F
I'm still into you. 
 

Verse intro riff:

e|---------------------------------------------------------------------------------------|
B|---------------------------------------------------------------------------------------|
G|---------------------------------------------------------------------------------------|
D|------------------2-----------------2--------------------2---------------------2-------|
A|------------0--3--------------0--3----3-----------0--3------------------0--3-----3-----|
E|----1----1------------1----1--------------1----1-----------------1----1----------------| x1

Verse 2: 
e|---------------------------------------------------------------------------------------|
B|---------------------------------------------------------------------------------------|
G|---------------------------------------------------------------------------------------|
D|------------------2-----------------2--------------------2---------------------2-------|
A|------------0--3--------------0--3----3-----------0--3------------------0--3-----3-----|
E|----1----1------------1----1--------------1----1-----------------1----1----------------|

e|---------------------------------------------------------------------------------------|
B|---------------------------------------------------------------------------------------|
G|---------------------------------------------------------------------------------------|
D|-------------------2------------------2----------------------2-------------------2-----|
A|----5----5---0--3------5----5---0--3-----3----5----5---0--3-------5----5---0--3-----3--|
E|---------------------------------------------------------------------------------------| x2

Verse 2 Lyrics:

Recount the night that I first, 

met your mother.

And on the drive back to my house,

I told you that, I told you that I loved ya.

You felt the weight of the world,

fall off your shoulder.

And to your favorite song, 

we sang along, to the start of forever.


Chorus:

(mute)              A#
And after all this time,
      B#        F
I'm still into you.
(strum)                  A#        B#
I should be over all the butterflies,
              F
But I'm into you.  (I'm into you)
                     A#         B#   
And baby even on our worst nights, 
          F
I'm into you.  (I'm into you)
                       A#          B# 
Let 'em wonder how we got this far,
                               Dm       F
Cause I don't really need to wonder at all.
                      A#
Yeah after all this time, 
      B#        F
I'm still into you. 


Instrumental Break/Middle 8 riff:

e|-------------------------------------5-5-5-5-5-5-5-5--3-3-3-3-3-3-3-3----|
B|-------------------------------------6-6-6-6-6-6-6-6--5-5-5-5-5-5-5-5----|
G|-------------------------------------7-7-7-7-7-7-7-7--5-5-5-5-5-5-5-5----|
D|-------3--2----------3--2------------7-7-7-7-7-7-7-7--5-5-5-5-5-5-5-5----|
A|-------------3-------------3---------5-5-5-5-5-5-5-5--3-3-3-3-3-3-3-3----|
E|----1-------------1------------------x-x-x-x-x-x-x-x--x-x-x-x-x-x-x-x----| x2 before vocals 


Middle 8 Lyrics: Play ^^^ riff through middle 8

Some things just, some things just make sense.

And one of those is you and I. (ohhhh)

Some things just, some things just make sense.

And even after all this time.  (ohhhh)


(mute)
A#  B#          F
      I'm into you.
            A#    
Baby not a day goes by,
          B#       F  
that I'm not into you.      (    

Added On December 16th, 2013

SHARE

Comments

blog comments powered by Disqus

VERSIONS

ADVERTISEMENT