Pete Murray Tabs

So Beautiful

6 versions

TAB

            So Beautiful Tab by Pete Murray


Pete Murray - So Beautiful 

This is a basic version this is the way I play it
Work out the strumming yourself it's not to hard 

Capo on the 3rd fret. Standard tuning 

h= hammer on

Verse
--0-----0-------0-----0-------
--0-----3-------3-----0-------
--0-----0-------0-----2-------
--2--0--2-------2--0--2-------
--2--0--0--2-3--3--0--0-------
--0--0--0-------0--0--0--3-2--

Chorus
--0--0--2--0--0--
--0-h1--3--1--4--
--0--2--2--0--0--
--2--2--0--2--5--
--2--0-----3--6--
--0--0-----0--0--

Order:

Verse
Chorus
[no guitar for a while here]
Verse
Chorus
Verse
Chorus

Have fun and rock on!!!!    

Added On December 5th, 2013

SHARE

Comments

blog comments powered by Disqus