Pete Murray Tabs

Trust

1 versions

TAB

            Trust Chords by Pete Murray

TRUST – Pete Murray
Tabbed by Longy Truong

This song sounds awesome on an electric, but you can still make out the scratches of the 
on an acoustic. ENJOY!
CAPO on 2nd

Intro
Pluck the ‘E’ string by itself  on the 5th fret in time with the song.

Verse 1
       A    C    A   F#/5    A    C   F#/5    G/5   F#/5
e|  |--0----0----0----0------0----0----0------0------0---|
B|  |--2----1----2----3------2----1----3------4------3---|
G|  |--2----0----2----0------2----0----0------0------0---|
D|  |--2----2----2----4------2----2----4------5------4---|
A|  |--0----3----0----5------0----3----5------6------5---|
E|  |--0----x----0----x------0----x----x------0------x---|

Repeat for rest of verse

Chorus
       Em   D    C
e|  |--0----2----0---|
B|  |--0----3----1---|
G|  |--0----2----0---|
D|  |--2----0----2---|
A|  |--2----x----3---|
E|  |--x----x----x---|

Note*---Listen to the song to pick up the riff of the strumming, and its important to 
up and down the fretboard when playing the verse chords.    

Added On December 5th, 2013

SHARE

Comments

blog comments powered by Disqus

ADVERTISEMENT