Peter Pan Speedrock Tabs

Lucky Bastards

1 versions

TAB

            Lucky Bastards Tab by Peter Pan Speedrock


	intro 0:01
|---------------------------------|
|---------------------------------|
|---------------------------------|
|---------------------------------|
|---7-5---------------------------|
|-0-----7-5-3-0-0-3-5-0-3-6-5-3-0-|

	verse 0:03
|-----------------------------------|
|-----------------------------------|
|-----------------------------------| 8 times
|-----------------------------------|
|-----------------------------------|
|-0-0-0-0-0-0-0-0-0-0-5-0-0-3-5-5-0-|

	pre chorus 0:20
|------------------------------------------------|
|------------------------------------------------|
|------------------------------------------------| 3 times
|-5--5--5--5-2---2--2--2-------------------------|
|-3--3--3--3-0---0--0--0-2---2--2--2-3---3--3--3-|
|------------------------0---0--0--0-1---1--1--1-|

	pre chorus continued...
|------------------------|
|------------------------|
|------------------------|
|-5--5--5--5-2---2--2--2-|
|-3--3--3--3-0---0--0--0-|
|------------------------|

	intro 0:31
|---------------------------------|
|---------------------------------|
|---------------------------------|
|---------------------------------|
|---7-5---------------------------|
|-0-----7-5-3-0-0-3-5-0-3-6-5-3-0-|

	[verse 4x] 0:33
	[pre chor] 0:42
	[intro 1x] 0:53

	chorus 0:55
|------------------------------------------------|
|------------------------------------------------|
|-2--2--2--2-2---2--2--2-2---2--2--2-2---2--2--2-|
|-2--2--2--2-2---2--2--2-2---2--2--2-2---2--2--2-|
|-0--0--0--0-0---0--0--0-0---0--0--0-0---0--0--0-|
|------------------------------------------------|

	chorus continued...			  1st time		  2nd time
|---------------------------------------|	|--------------|	|--------------|
|---------------------------------------|	|--------------|	|--------------|
|-2---2--2--2---------------------------|	|--------------|	|--------------|
|-0---0--0--0-------------2---2--2--2-2-|	|--------------|	|-xxxxxxxxxxxx-|
|-------------5---5--5--5-0---0--0--0-0-|	|-0-3p0--5p0---|	|-xxxxxxxxxxxx-|
|-------------3---3--3--3---------------|	|------------3-|	|-xxxxxxxxxxxx-|
pickslide								  ............

	[chorus2x] 0:55
	[verse 4x] 1:13
	[pre chor] 1:22
	[intro 1x] 1:33
	[chorus2x] 1:35

	solo 1:53
|-------------------------------------------|
|----12-----12-12-12-12-12-12-12------------|
|----14b16--16-16-16-16-16-16-16b14--14--14-|
|-------------------------------------------|
|-0-----------------------------------------|
|-------------------------------------------|

	solo continued... 
|----------------------------------------------|
|-------15-17b--17b--17b--17b--15h17p15--------|
|-12-14---------------------------------16--16-|
|----------------------------------------------|
|----------------------------------------------|
|----------------------------------------------|

	solo continued...... 
|---------15--17b--17b--17b--17b--15h17p15--------|
|-----17-----------------------------------17--17-|
|-16----------------------------------------------|
|-------------------------------------------------|
|-------------------------------------------------|
|-------------------------------------------------|

	solo continued......... 
|------------------------------------------|
|-12-12-14-15--15--14--12-----12-----------|
|--------------------------14----14-12-----|
|--------------------------------------14~-|
|------------------------------------------|
|------------------------------------------|

	[pre chor5x] 2:01
	[intro   1x] 2:22

	outro 2:25
|-----------------------------------------------|
|-----------------------------------------------|
|-----------------------------------------------|
|-2~~-----------------------------------------2-|
|-2~~-----------------------------------------2-|
|-0~~-----------------------------------------0-|    

Added On December 5th, 2013

SHARE

Comments

blog comments powered by Disqus

ADVERTISEMENT