Philippe Nix Tabs

Like And Share

2 versions

TAB

            Like and share

Strophe
|--------|--------|--------|--------|
|--------|--------|--------|--------|
|--------|--------|--------|--------|
|--------|--------|--------|--------|
|----1111|3333----|----1111|3--3----|
|3333----|----3333|3333----|--------|

Refrain
|--------|--------|--------|--------|
|--------|--------|--------|--------|
|--------|--------|--------|--------|
|--------|3--5----|--------|--------|
|3--5----|1--3----|----1111|3--3----|
|1--3----|--------|3333----|--------|

Break
|--------|--------|--------|--------|
|--------|--------|--------|--------|
|--------|--------|--------|--------|
|--------|--------|--------|--------|
|----1111|3--3----|----1111|3--3----|
|3333----|--------|3333----|--------|

Schlusston
|--------|
|--------|
|--------|
|--------|
|5-------|
|3-------|

Verlauf
9 Takte Pause | 2x Refrain | 1x Break | 2x Strophe | 11 Takte iwas (solo part) | 
2x Refrain | Schlusston

Check out:
- http://www.youtube.com/Basketballfreaky
- http://www.webnixe.net/Philippe    

Added On December 16th, 2013

SHARE

Comments

blog comments powered by Disqus

VERSIONS

ADVERTISEMENT