Pillows Tabs

Come Down

5 versions

TAB

            Come Down Tab by Pillows


this is really messy. sorry.


e-----------------------------------------|
B-----------------------------------------|
G-----0-----------------------------------|
D-------------3-------2---0---------------|
A-3-3---3-1-1---1-0-0---------------------|
E-----------------------4---3-------------| x6

C Bb Am G# x4

G Am F C G Am F

e-----------------------------------------|
B-----------------------------------------|
G-----0-----------------------------------|
D-------------3-------2---0---------------|
A-3-3---3-1-1---1-0-0---------------------|
E-----------------------4---3-------------|

C Bb Am G#

e-----------------------------------------|
B-----------------------------------------|
G-----0-----------------------------------|
D-------------3-------2---0---------------|
A-3-3---3-1-1---1-0-0---------------------|
E-----------------------4---3-------------|

C Bb Am G#

e-----------------------------------------|
B-----------------------------------------|
G-----0-----------------------------------|
D-------------3-------2---0---------------|
A-3-3---3-1-1---1-0-0---------------------|
E-----------------------4---3-------------|

C Bb Am G#

e-----------------------------------------|
B-----------------------------------------|
G-----0-----------------------------------|
D-------------3-------2---0---------------|
A-3-3---3-1-1---1-0-0---------------------|
E-----------------------4---3-------------|

C Bb Am G#

G Am F C G Am F

e-----------------------------------------|
B-----------------------------------------|
G-----0-----------------------------------|
D-------------3-------2---0---------------|
A-3-3---3-1-1---1-0-0---------------------|
E-----------------------4---3-------------| x3

C Bb Am G#

G Am F C G Am F

C Bb Am G# x6    

Added On December 5th, 2013

SHARE

Comments

blog comments powered by Disqus

VERSIONS

ADVERTISEMENT