Plain White Ts Tabs

Airplane

1 versions

TAB

            -----------------------------------------------------------------------------
			     AIRPLANE - Plain White T's 
-----------------------------------------------------------------------------
                                                              Leonardo Cisija        
Tabbed by: TrueMangaAnimeLover (T.M.A.L.)
Email: TrueMangaAnimeLover@yahoo.com

Tuning: Standard

            NOTES- A few notes before you begin. There's one chord I didn't
know the name of. I'm not even sure that It's a real chord. But you'll
probably be playing the tabbed part anyway. So, here's the order of sections.
Enjoy:                                                     
                             1.  Intro/Verse
                             2.  Intro/Verse
                             3.  Chorus A
                             4.  Intro/Verse
                             5.  Chorus B
                             6.  Ending Verse
     Intro/Verse:

     Gm        D         Gm        D7        Bb        D7        Bb    
e|-----------|---------|---------|---------|---------|---------|---------|
B|-----------|---------|---------|---------|---------|---------|---------|
G|---3----3--|-2----2--|-3----3--|-5----5--|-7----7--|-5----5--|-7----7--|
D|---0--0-0--|----0----|----0----|----0-0--|-0--0----|-0--0-0--|-0--0----|
A|-----------|---------|---------|---------|---------|---------|---------|
E|---3-3-3-3-|-2-2-2-2-|-3-3-3-3-|-5-5-5-5-|-6-6-6-6-|-5-5-5-5-|-6-6-6-6-|
  
     Bm        Cm        G sus4     Cm        G sus4   D         --
e|-----------|---------|---------|---------|---------|---------|---------|
B|-----------|-4----4--|-3----3--|-4----4--|-3----3--|-3----3--|-1-------|
G|---7----7--|----0-0--|----0-0--|-0--0-0--|-0--0-0--|----2-2--|----3-2--|
D|------0-0--|---------|---------|---------|---------|---------|---------|
A|-----------|-3-3-3-3-|-3-3-3-3-|-3-3-3-3-|-3-3-3-3-|---------|---------|
E|---7-7-7-7-|---------|---------|---------|---------|-2-2-2-2-|-3-3-3---|

     A7        D7
e|-----------|---------|
B|---2----2--|-1----1--|
G|------0-0--|----2----|
D|-----------|-0-0-0-0-|
A|---0-0-0---|---------|
E|-----------|---------|



Chorus A:

     Cm        G         Cm        G         Gm        Am        A
e|-----------|---------|---------|---------|---------|---------|---------|
B|---4----4--|-3----3--|-4----4--|-3----3--|-3----3--|-1----1--|-2----2--|
G|------0-0--|----0-0--|----0-0--|----0-0--|-0--0----|----0----|----0----|
D|-----------|---------|---------|---------|---------|---------|---------|
A|---3-3-3-3-|-2-2-2-2-|-3-3-3-3-|-2-2-2-2-|-1-1-1-1-|-0-0-0-0-|-0-0-0-0-|
E|-----------|---------|---------|---------|---------|---------|---------|

     D
e|-----------|
B|---2----2--|
G|------1----|
D|---0-0-0-0-|
A|-----------|
E|-----------|



Chorus B:

   Cm        G         Cm        G         Gm        Am          A7
e|-----------|---------|---------|---------|---------|---------|---------|
B|---4----4--|-3----3--|-4----4--|-3----3--|-3----3--|-1----1--|-2--5--8-|
G|------0-0--|----0-0--|-0--0-0--|-0--0-0--|----0----|----0----|---------|
D|-----------|---------|---------|---------|---------|---------|---------|
A|---3-3-3-3-|-2-2-2-2-|-3-3-3-3-|-2-2-2-2-|-1-1-1-1-|-0-0-0-0-|-0--4--7-|
E|-----------|---------|---------|---------|---------|---------|---------|

               D7
e|-----------|-2--5--8-|---------|---------|---------|---------|
B|-----------|-3--7--10|---------|-----13--|-----13--|---------|
G|-----------|-2--7--11|---------|---14--14|---14--14|---------|
D|-----------|---------|---------|-0-------|-0-------|---------|
A|-----------|---------|---------|---------|---------|---------|
E|-----------|---------|---------|---------|---------|---------|



Ending Verse:

     Gm        D         Gm        D7        Bb        D7        Bb    
e|-----------|---------|---------|---------|---------|---------|---------|
B|-----------|---------|---------|---------|---------|---------|---------|
G|---3----3--|-2----2--|-3----3--|-5----5--|-7----7--|-5----5--|-7----7--|
D|---0--0-0--|----0----|----0----|----0-0--|-0--0----|-0--0-0--|-0--0----|
A|-----------|---------|---------|---------|---------|---------|---------|
E|---3-3-3-3-|-2-2-2-2-|-3-3-3-3-|-5-5-5-5-|-6-6-6-6-|-5-5-5-5-|-6-6-6-6-|
  
     Bm        Cm        G sus4     Cm        G sus4   D         --
e|-----------|---------|---------|---------|---------|---------|---------|
B|-----------|-4----4--|-3----3--|-4----4--|-3----3--|-3----3--|-1-------|
G|---7----7--|----0-0--|----0-0--|-0--0-0--|-0--0-0--|----2-2--|----3-2--|
D|------0-0--|---------|---------|---------|---------|---------|---------|
A|-----------|-3-3-3-3-|-3-3-3-3-|-3-3-3-3-|-3-3-3-3-|---------|---------|
E|---7-7-7-7-|---------|---------|---------|---------|-2-2-2-2-|-3-3-3---|

     A7        D7                  Gm
e|-----------|---------|---------|-3-------|---------|
B|---2----2--|-------1-|---------|-3-------|---------|
G|------0-0--|-----2---|---------|-3-------|---------|
D|-----------|-0--0----|-0-------|-4-------|---------|
A|---0-0-0---|---------|---------|-4-------|---------|
E|-----------|---------|---------|-3-------|---------|


LYRICS (The numbers are the ones from the note on top of the page)

      1. *Instrumental*
      2. Airplane, airplane, put me to sleep again. Take me away, off to a
dream, and then I'll fly, so high across the sky, and wake up in a place
where mistakes from my past are erased.
      3. Don't drop me. Don't stop me. Just hold me, so cozy.
      4. Airplane, airplane, don't you go down today. Take me away, off to a
better place. You know, just where I'd like to go. Please get me there on
time; don't delay me from losing my mind.
      5. Don't drop me. Don't stop me. Just hold me.
      6. Airplane, airplane, don't you go down today. Take me away, off to a
better place. You know, just where I'd like to go. Please get me there soon;
I've important things that I must do.    

Added On December 16th, 2013

SHARE

Comments

blog comments powered by Disqus

ADVERTISEMENT