Plain White Ts Tabs

You And Me

1 versions

TAB

            Plain White T's
You And Me


VERSE 1

e|--------------------------------------------|
B|--------------------------------------------|
G|--------------------------------------------|
D|--------------------------------------------|
A|-----5-5-5--5-5-5-5-7---3-3-3-----------5---|
E|--3-------3-----------3------3--1-1-1-1-----|

e|--------------------------------------------------|
B|--------------------------------------------------|
G|--------------------------------------------------|
D|--------------------------------------------------|
A|-----5-5-5---3-3-3-3--5---3-3-3-------------------|  x2
E|--3-------3------------0--------3--1-1-1-1-1-1-1--|

CHORUS 1

e|--------------|----|--------------|
B|--------------|----|--------------|
G|--------7-----|----|--8-----7-----|
D|--5-----7-----|-x3-|--8-----7-----|
A|--5-x8--5-x8--|then|--6-x8--5-x8--|
E|--3-----------|----|--------------|

VERSE 2

e|--------------------------------------------|
B|--------------------------------------------|
G|--------------------------------------------|
D|--------------------------------------------|
A|-----5-5-5--5-5-5-5-7---3-3-3-----------5---|
E|--3-------3-----------3------3--1-1-1-1-----|

e|--------------------------------------------------|
B|--------------------------------------------------|
G|--------------------------------------------------|
D|--------------------------------------------------|
A|-----5-5-5---3-3-3-3--5---3-3-3-------------------|  x2
E|--3-------3------------0--------3--1-1-1-1-1-1-1--|

CHORUS 2

e|--------------|----|--------------|
B|--------------|----|--------------|
G|--------7-----|----|--8-----7-----|
D|--5-----7-----|-x3-|--8-----7-----|
A|--5-x8--5-x8--|then|--6-x8--5-x8--|
E|--3-----------|----|--------------|

e|--------------|----|-------------------------------------------------|
B|--------------|----|-------------------------------------------------|
G|--------9-----|----|-10----9-----8-----7-----6-----5-----4-----9-----|
D|--7-----9-----|-x3-|-10----9-----8-----7-----6-----5-----4-----9-----|
A|--7—x8--7-x8--|then|-8—x8--7-x8--6-x8--5-x8--4-x8--3-x8--2-x8--7-X5--|
E|--5-----------|----|-------------------------------------------------|

POST CHORUS

e|---------------------------|
B|---------------------------|
G|---------------------------|
D|---------------------------|
A|-----5-5-5-----------------|
E|--3-------3-1-1-1-1-1-1-1--|

VERSE 3

e|--------------------------------------------|
B|--------------------------------------------|
G|--------------------------------------------|
D|--------------------------------------------|
A|-----5-5-5--5-5-5-5-7---3-3-3-----------5---|
E|--3-------3-----------3------3--1-1-1-1-----|

e|-------------------------------|
B|-------------------------------|
G|-------------------------------|
D|-------------------------------|
A|-----5-5-5---3-3-3-3--5---3----|
E|--3-------3------------0----3--|

CHORUS 3

e|--------------|----|--------------|
B|--------------|----|--------------|
G|--------7-----|----|--8-----7-----|
D|--5-----7-----|-x3-|--8-----7-----|
A|--5-x8--5-x8--|then|--6-x8--5-x8--|
E|--3-----------|----|--------------|

e|--------------|----|-------------------------------------------------|
B|--------------|----|-------------------------------------------------|
G|--------9-----|----|-10----9-----8-----7-----6-----5-----4-----9-----|
D|--7-----9-----|-x3-|-10----9-----8-----7-----6-----5-----4-----9-----|
A|--7—x8--7-x8--|then|-8—x8--7-x8--6-x8--5-x8--4-x8--3-x8--2-x8--7-X5--|
E|--5-----------|----|-------------------------------------------------|    

Added On December 16th, 2013

SHARE

Comments

blog comments powered by Disqus

ADVERTISEMENT