Plus 44 Tabs

Interlude

3 versions

TAB

            Interlude Tab by Plus 44


Guitar 1
E----------------------------------------------|
B--------8--------8-------5-------------8------|
G------7--------7-----------4-5----4-5---------|
D----9--------9--------------------------------|
A--0--------0----------------------------------|
E----------------------------------------------|

Guitar 2
E--------------------------------------------------|
B--------------------------------------------------|
G--------------------------------------------------|
D--------------------------------------------------|
A-7777/5-555/3-2/3-3/5-7-5-3/5-10-5/7--------------|
E--------------------------------------------------|

this tab is 99.9% right hope you enjoy it.
+182airwaves    

Added On December 5th, 2013

SHARE

Comments

blog comments powered by Disqus

VERSIONS

ADVERTISEMENT